  0
SECTION
  2
HEADER
  9
$ACADVER
  1
AC1009
  9
$DWGCODEPAGE
  3
ansi_1252
  9
$INSBASE
 10
0.0
 20
0.0
 30
0.0
  9
$EXTMIN
 10
415164.819463
 20
380666.6916819999
 30
0.0
  9
$EXTMAX
 10
415537.0865980001
 20
380977.360384
 30
388.904125
  9
$LIMMIN
 10
0.0
 20
0.0
  9
$LIMMAX
 10
420.0
 20
297.0
  9
$ORTHOMODE
 70
     0
  9
$REGENMODE
 70
     1
  9
$FILLMODE
 70
     1
  9
$QTEXTMODE
 70
     0
  9
$MIRRTEXT
 70
     0
  9
$DRAGMODE
 70
     2
  9
$LTSCALE
 40
1.0
  9
$OSMODE
 70
    37
  9
$ATTMODE
 70
     1
  9
$TEXTSIZE
 40
2.5
  9
$TRACEWID
 40
1.0
  9
$TEXTSTYLE
  7
STANDARD
  9
$CLAYER
  8
0
  9
$CELTYPE
  6
BYLAYER
  9
$CECOLOR
 62
   256
  9
$DIMSCALE
 40
1.0
  9
$DIMASZ
 40
2.5
  9
$DIMEXO
 40
0.625
  9
$DIMDLI
 40
3.75
  9
$DIMRND
 40
0.0
  9
$DIMDLE
 40
0.0
  9
$DIMEXE
 40
1.25
  9
$DIMTP
 40
0.0
  9
$DIMTM
 40
0.0
  9
$DIMTXT
 40
2.5
  9
$DIMCEN
 40
2.5
  9
$DIMTSZ
 40
0.0
  9
$DIMTOL
 70
     0
  9
$DIMLIM
 70
     0
  9
$DIMTIH
 70
     0
  9
$DIMTOH
 70
     0
  9
$DIMSE1
 70
     0
  9
$DIMSE2
 70
     0
  9
$DIMTAD
 70
     1
  9
$DIMZIN
 70
     8
  9
$DIMBLK
  1

  9
$DIMASO
 70
     1
  9
$DIMSHO
 70
     1
  9
$DIMPOST
  1

  9
$DIMAPOST
  1

  9
$DIMALT
 70
     0
  9
$DIMALTD
 70
     3
  9
$DIMALTF
 40
0.03937007874016
  9
$DIMLFAC
 40
1.0
  9
$DIMTOFL
 70
     1
  9
$DIMTVP
 40
0.0
  9
$DIMTIX
 70
     0
  9
$DIMSOXD
 70
     0
  9
$DIMSAH
 70
     0
  9
$DIMBLK1
  1

  9
$DIMBLK2
  1

  9
$DIMSTYLE
  2
ISO-25
  9
$DIMCLRD
 70
     0
  9
$DIMCLRE
 70
     0
  9
$DIMCLRT
 70
     0
  9
$DIMTFAC
 40
1.0
  9
$DIMGAP
 40
0.625
  9
$LUNITS
 70
     2
  9
$LUPREC
 70
     4
  9
$SKETCHINC
 40
1.0
  9
$FILLETRAD
 40
0.0
  9
$AUNITS
 70
     0
  9
$AUPREC
 70
     0
  9
$MENU
  1
.
  9
$ELEVATION
 40
0.0
  9
$PELEVATION
 40
0.0
  9
$THICKNESS
 40
0.0
  9
$LIMCHECK
 70
     0
  9
$CHAMFERA
 40
0.0
  9
$CHAMFERB
 40
0.0
  9
$SKPOLY
 70
     0
  9
$TDCREATE
 40
2456870.726527593
  9
$TDUPDATE
 40
2456885.560428542
  9
$TDINDWG
 40
0.0009051389
  9
$TDUSRTIMER
 40
0.0009049537
  9
$USRTIMER
 70
     1
  9
$ANGBASE
 50
0.0
  9
$ANGDIR
 70
     0
  9
$PDMODE
 70
     0
  9
$PDSIZE
 40
0.0
  9
$PLINEWID
 40
0.0
  9
$COORDS
 70
     1
  9
$SPLFRAME
 70
     0
  9
$SPLINETYPE
 70
     6
  9
$SPLINESEGS
 70
     8
  9
$ATTDIA
 70
     0
  9
$ATTREQ
 70
     1
  9
$HANDLING
 70
     1
  9
$HANDSEED
  5
26B
  9
$SURFTAB1
 70
     6
  9
$SURFTAB2
 70
     6
  9
$SURFTYPE
 70
     6
  9
$SURFU
 70
     6
  9
$SURFV
 70
     6
  9
$UCSNAME
  2

  9
$UCSORG
 10
0.0
 20
0.0
 30
0.0
  9
$UCSXDIR
 10
1.0
 20
0.0
 30
0.0
  9
$UCSYDIR
 10
0.0
 20
1.0
 30
0.0
  9
$PUCSNAME
  2

  9
$PUCSORG
 10
0.0
 20
0.0
 30
0.0
  9
$PUCSXDIR
 10
1.0
 20
0.0
 30
0.0
  9
$PUCSYDIR
 10
0.0
 20
1.0
 30
0.0
  9
$USERI1
 70
     0
  9
$USERI2
 70
     0
  9
$USERI3
 70
     0
  9
$USERI4
 70
     0
  9
$USERI5
 70
     0
  9
$USERR1
 40
0.0
  9
$USERR2
 40
0.0
  9
$USERR3
 40
0.0
  9
$USERR4
 40
0.0
  9
$USERR5
 40
0.0
  9
$WORLDVIEW
 70
     1
  9
$SHADEDGE
 70
     3
  9
$SHADEDIF
 70
    70
  9
$TILEMODE
 70
     1
  9
$MAXACTVP
 70
    64
  9
$PLIMCHECK
 70
     0
  9
$PEXTMIN
 10
0.0
 20
0.0
 30
0.0
  9
$PEXTMAX
 10
0.0
 20
0.0
 30
0.0
  9
$PLIMMIN
 10
0.0
 20
0.0
  9
$PLIMMAX
 10
12.0
 20
9.0
  9
$UNITMODE
 70
     0
  9
$VISRETAIN
 70
     1
  9
$PLINEGEN
 70
     0
  9
$PSLTSCALE
 70
     1
  0
ENDSEC
  0
SECTION
  2
TABLES
  0
TABLE
  2
VPORT
 70
     1
  0
VPORT
  2
*ACTIVE
 70
     0
 10
0.0
 20
0.0
 11
1.0
 21
1.0
 12
415576.289985824
 22
380771.9544865956
 13
0.0
 23
0.0
 14
10.0
 24
10.0
 15
10.0
 25
10.0
 16
0.0
 26
0.0
 36
1.0
 17
0.0
 27
0.0
 37
0.0
 40
766.7466684233045
 41
1.767361111111111
 42
50.0
 43
0.0
 44
0.0
 50
0.0
 51
0.0
 71
     0
 72
  1000
 73
     1
 74
     3
 75
     0
 76
     0
 77
     0
 78
     0
  0
ENDTAB
  0
TABLE
  2
LTYPE
 70
     1
  0
LTYPE
  2
CONTINUOUS
 70
     0
  3
Solid line
 72
    65
 73
     0
 40
0.0
  0
ENDTAB
  0
TABLE
  2
LAYER
 70
     3
  0
LAYER
  2
0
 70
     0
 62
     7
  6
CONTINUOUS
  0
LAYER
  2
PNTELEV
 70
     0
 62
     2
  6
CONTINUOUS
  0
LAYER
  2
PNTNO
 70
     0
 62
     3
  6
CONTINUOUS
  0
ENDTAB
  0
TABLE
  2
STYLE
 70
     1
  0
STYLE
  2
STANDARD
 70
     0
 40
0.0
 41
1.0
 50
0.0
 71
     0
 42
2.5
  3
txt
  4

  0
ENDTAB
  0
TABLE
  2
VIEW
 70
     0
  0
ENDTAB
  0
TABLE
  2
UCS
 70
     0
  0
ENDTAB
  0
TABLE
  2
APPID
 70
     2
  0
APPID
  2
ACAD
 70
     0
  0
APPID
  2
ACAD_PSEXT
 70
     0
  0
ENDTAB
  0
TABLE
  2
DIMSTYLE
 70
     2
  0
DIMSTYLE
  2
ISO-25
 70
     0
  3

  4

  5

  6

  7

 40
1.0
 41
2.5
 42
0.625
 43
3.75
 44
1.25
 45
0.0
 46
0.0
 47
0.0
 48
0.0
140
2.5
141
2.5
142
0.0
143
0.03937007874016
144
1.0
145
0.0
146
1.0
147
0.625
 71
     0
 72
     0
 73
     0
 74
     0
 75
     0
 76
     0
 77
     1
 78
     8
170
     0
171
     3
172
     1
173
     0
174
     0
175
     0
176
     0
177
     0
178
     0
  0
DIMSTYLE
  2
STANDARD
 70
     0
  3

  4

  5

  6

  7

 40
1.0
 41
0.18
 42
0.0625
 43
0.38
 44
0.18
 45
0.0
 46
0.0
 47
0.0
 48
0.0
140
0.18
141
0.09
142
0.0
143
25.4
144
1.0
145
0.0
146
1.0
147
0.09
 71
     0
 72
     0
 73
     1
 74
     1
 75
     0
 76
     0
 77
     0
 78
     0
170
     0
171
     2
172
     0
173
     0
174
     0
175
     0
176
     0
177
     0
178
     0
  0
ENDTAB
  0
ENDSEC
  0
SECTION
  2
BLOCKS
  0
BLOCK
  8
0
  2
$MODEL_SPACE
 70
     0
 10
0.0
 20
0.0
 30
0.0
  3
$MODEL_SPACE
  1

  0
ENDBLK
  5
1D8
  8
0
  0
BLOCK
 67
     1
  8
0
  2
$PAPER_SPACE
 70
     0
 10
0.0
 20
0.0
 30
0.0
  3
$PAPER_SPACE
  1

  0
ENDBLK
  5
1D4
 67
     1
  8
0
  0
ENDSEC
  0
SECTION
  2
ENTITIES
  0
POLYLINE
  5
11E
  8
0
  6
CONTINUOUS
 66
     1
 10
0.0
 20
0.0
 30
376.612992
  0
VERTEX
  5
23A
  8
0
  6
CONTINUOUS
 10
415297.9013999999
 20
380774.229625
 30
376.612992
  0
VERTEX
  5
23B
  8
0
  6
CONTINUOUS
 10
415297.539538
 20
380772.6535690001
 30
376.612992
  0
VERTEX
  5
23C
  8
0
  6
CONTINUOUS
 10
415299.0563590001
 20
380772.249747
 30
376.612992
  0
VERTEX
  5
23D
  8
0
  6
CONTINUOUS
 10
415299.442927
 20
380773.810726
 30
376.612992
  0
VERTEX
  5
23E
  8
0
  6
CONTINUOUS
 10
415297.8872310219
 20
380774.1679133449
 30
376.612992
  0
SEQEND
  5
262
  8
0
  6
CONTINUOUS
  0
POLYLINE
  5
11F
  8
0
  6
CONTINUOUS
 66
     1
 10
0.0
 20
0.0
 30
373.787279
  0
VERTEX
  5
23F
  8
0
  6
CONTINUOUS
 10
415359.974776
 20
380785.8393110001
 30
373.787279
  0
VERTEX
  5
240
  8
0
  6
CONTINUOUS
 10
415358.973095
 20
380784.6408920001
 30
373.787279
  0
VERTEX
  5
241
  8
0
  6
CONTINUOUS
 10
415357.8041880001
 20
380785.653047
 30
373.787279
  0
VERTEX
  5
242
  8
0
  6
CONTINUOUS
 10
415358.774253
 20
380786.796797
 30
373.787279
  0
VERTEX
  5
243
  8
0
  6
CONTINUOUS
 10
415359.9521637471
 20
380785.8122575234
 30
373.787279
  0
SEQEND
  5
263
  8
0
  6
CONTINUOUS
  0
POLYLINE
  5
120
  8
0
  6
CONTINUOUS
 66
     1
 10
0.0
 20
0.0
 30
372.987949
  0
VERTEX
  5
244
  8
0
  6
CONTINUOUS
 10
415372.602941
 20
380791.891899
 30
372.987949
  0
VERTEX
  5
245
  8
0
  6
CONTINUOUS
 10
415373.86113
 20
380791.330343
 30
372.987949
  0
VERTEX
  5
246
  8
0
  6
CONTINUOUS
 10
415373.224792
 20
380789.893337
 30
372.987949
  0
VERTEX
  5
247
  8
0
  6
CONTINUOUS
 10
415371.973117
 20
380790.45882
 30
372.987949
  0
VERTEX
  5
248
  8
0
  6
CONTINUOUS
 10
415372.6111039726
 20
380791.888255695
 30
372.987949
  0
SEQEND
  5
264
  8
0
  6
CONTINUOUS
  0
POLYLINE
  5
121
  8
0
  6
CONTINUOUS
 66
     1
 10
0.0
 20
0.0
 30
0.0
  0
VERTEX
  5
249
  8
0
  6
CONTINUOUS
 10
415435.8883185604
 20
380926.7504019367
 30
0.0
  0
VERTEX
  5
24A
  8
0
  6
CONTINUOUS
 10
415437.1922646848
 20
380927.5525865674
 30
0.0
  0
VERTEX
  5
24B
  8
0
  6
CONTINUOUS
 10
415435.788014626
 20
380929.8087311598
 30
0.0
  0
VERTEX
  5
24C
  8
0
  6
CONTINUOUS
 10
415434.6846763705
 20
380929.0065465292
 30
0.0
  0
VERTEX
  5
24D
  8
0
  6
CONTINUOUS
 10
415435.8883185604
 20
380926.7504019367
 30
0.0
  0
SEQEND
  5
265
  8
0
  6
CONTINUOUS
  0
POLYLINE
  5
122
  8
0
  6
CONTINUOUS
 66
     1
 10
0.0
 20
0.0
 30
0.0
  0
VERTEX
  5
24E
  8
0
  6
CONTINUOUS
 10
415482.4371145214
 20
380749.8160010445
 30
0.0
  0
VERTEX
  5
24F
  8
0
  6
CONTINUOUS
 10
415484.3310513474
 20
380748.2273168782
 30
0.0
  0
VERTEX
  5
250
  8
0
  6
CONTINUOUS
 10
415485.1582888262
 20
380749.5766100304
 30
0.0
  0
VERTEX
  5
251
  8
0
  6
CONTINUOUS
 10
415483.8738937668
 20
380750.9041404956
 30
0.0
  0
VERTEX
  5
252
  8
0
  6
CONTINUOUS
 10
415482.4371145214
 20
380749.8160010445
 30
0.0
  0
SEQEND
  5
266
  8
0
  6
CONTINUOUS
  0
LINE
  5
123
  8
0
  6
CONTINUOUS
 10
415312.7860949999
 20
380691.591161
 30
374.305948
 11
415461.74546
 21
380908.415322
 31
371.96166
  0
POLYLINE
  5
124
  8
0
  6
CONTINUOUS
 66
     1
 10
0.0
 20
0.0
 30
369.231856
  0
VERTEX
  5
253
  8
0
  6
CONTINUOUS
 10
415402.560296
 20
380734.9576070001
 30
369.231856
  0
VERTEX
  5
254
  8
0
  6
CONTINUOUS
 10
415449.195002
 20
380810.539596
 30
369.231856
  0
SEQEND
  5
267
  8
0
  6
CONTINUOUS
  0
POLYLINE
  5
125
  8
0
  6
CONTINUOUS
 66
     1
 10
0.0
 20
0.0
 30
382.237477
  0
VERTEX
  5
255
  8
0
  6
CONTINUOUS
 10
415209.860199
 20
380783.0312810001
 30
382.237477
  0
VERTEX
  5
256
  8
0
  6
CONTINUOUS
 10
415454.337562
 20
380926.7023010001
 30
382.237477
  0
SEQEND
  5
268
  8
0
  6
CONTINUOUS
  0
POLYLINE
  5
126
  8
0
  6
CONTINUOUS
 66
     1
 10
0.0
 20
0.0
 30
0.0
  0
VERTEX
  5
257
  8
0
  6
CONTINUOUS
 10
415457.0454934176
 20
380916.9985550416
 30
0.0
  0
VERTEX
  5
258
  8
0
  6
CONTINUOUS
 10
415457.6015255377
 20
380916.4797503537
 30
0.0
  0
VERTEX
  5
259
  8
0
  6
CONTINUOUS
 10
415458.0834197253
 20
380916.9862023852
 30
0.0
  0
VERTEX
  5
25A
  8
0
  6
CONTINUOUS
 10
415457.5891676334
 20
380917.4432472315
 30
0.0
  0
VERTEX
  5
25B
  8
0
  6
CONTINUOUS
 10
415457.0454934176
 20
380916.9985550416
 30
0.0
  0
SEQEND
  5
269
  8
0
  6
CONTINUOUS
  0
POLYLINE
  5
127
  8
0
  6
CONTINUOUS
 66
     1
 10
0.0
 20
0.0
 30
379.84779
  0
VERTEX
  5
25C
  8
0
  6
CONTINUOUS
 10
415250.973805
 20
380802.166713
 30
379.84779
  0
VERTEX
  5
25D
  8
0
  6
CONTINUOUS
 10
415257.9827949999
 20
380790.289309
 30
379.84779
  0
VERTEX
  5
25E
  8
0
  6
CONTINUOUS
 10
415230.9430699999
 20
380774.3807840001
 30
379.84779
  0
VERTEX
  5
25F
  8
0
  6
CONTINUOUS
 10
415223.175661
 20
380787.62609
 30
379.84779
  0
VERTEX
  5
260
  8
0
  6
CONTINUOUS
 10
415250.973805
 20
380802.166713
 30
379.84779
  0
SEQEND
  5
26A
  8
0
  6
CONTINUOUS
  0
TEXT
  5
1F6
  8
PNTNO
 10
415514.06063
 20
380740.642561
 30
0.0
 40
4.317369
  1
CORNR
  0
TEXT
  5
1F7
  8
PNTELEV
 10
415514.06063
 20
380735.245849
 30
0.0
 40
4.317369
  1
363.511
  0
POINT
  5
1F8
  8
0
 10
415511.470209
 20
380740.642561
 30
363.511476
  0
TEXT
  5
1F9
  8
PNTNO
 10
415240.254593
 20
380672.088393
 30
0.0
 40
4.317369
  1
CORNR1
  0
TEXT
  5
1FA
  8
PNTELEV
 10
415240.254593
 20
380666.691682
 30
0.0
 40
4.317369
  1
378.944
  0
POINT
  5
1FB
  8
0
 10
415237.664172
 20
380672.088393
 30
378.944132
  0
TEXT
  5
1FC
  8
PNTNO
 10
415167.409884
 20
380965.954077
 30
0.0
 40
4.317369
  1
CORNR2
  0
TEXT
  5
1FD
  8
PNTELEV
 10
415167.409884
 20
380960.557365
 30
0.0
 40
4.317369
  1
388.904
  0
POINT
  5
1FE
  8
0
 10
415164.819463
 20
380965.954077
 30
388.904125
  0
TEXT
  5
1FF
  8
PNTNO
 10
415444.292217
 20
380973.043015
 30
0.0
 40
4.317369
  1
CORNR3
  0
TEXT
  5
200
  8
PNTELEV
 10
415444.292217
 20
380967.646303
 30
0.0
 40
4.317369
  1
374.669
  0
POINT
  5
201
  8
0
 10
415441.701796
 20
380973.043015
 30
374.668701
  0
ENDSEC
  0
EOF
