999
     Created by LSS v9.91.03 : 2014.11.11 16:47
999
     Survey for :      00445 - 141106 - COMBINED GEOL
999
     Character height is Metres on the finished drawing.
999
     The text positioning and size is based on,
999
               a plot scale of  1000.0
999
               a plot rotation of 0.0000 (DEGR)
999
     DXF data is in 3-D Metres
999
     NOTE : DXFIN file into an EMPTY drawing, ie
999
            Version 13 or earlier :
999
               drawingname=     (the = is essential)
999
               command : DXFIN
999
            Version 14 or later :
999
               New, Start from scratch
999
               command : DXFIN
  0
SECTION
  2
HEADER
  9
$ACADVER
  1
AC1013
  9
$INSBASE
 10
0.0
 20
0.0
  9
$EXTMIN
 10
414900.0
 20
381000.0
 30
227.297
  9
$EXTMAX
 10
415800.0
 20
381600.0
 30
376.432
  9
$LIMMIN
 10
414900.0
 20
381000.0
  9
$LIMMAX
 10
415800.0
 20
381600.0
  9
$TEXTSIZE
 40
2.0
  9
$PDMODE
 70
     2
  9
$PDSIZE
 40
1.5
  9
$FLATLAND
 70
     1
  9
$LUNITS
 70
     2
  9
$LUPREC
 70
     3
  9
$LTSCALE
 40
1.0
  9
$AUNITS
 70
     1
  9
$AUPREC
 70
     6
  9
$ANGBASE
 50
90.0
  9
$ANGDIR
 70
     1
  9
$HANDLING
 70
     1
  9
$HANDSEED
  5
10000000
  0
ENDSEC
  0
SECTION
  2
TABLES
  0
TABLE
  2
VPORT
  5
        65
100
AcDbSymbolTable
  0
VPORT
  5
        66
100
AcDbSymbolTableRecord
100
AcDbViewportTableRecord
  2
*ACTIVE
 70
     0
 12
415379.848
 22
381347.702
 40
1272.827
 41
   2.166894664842723
  0
ENDTAB
  0
TABLE
  2
LTYPE
  5
        67
100
AcDbSymbolTable
 70
    10
  0
LTYPE
  5
        68
100
AcDbSymbolTableRecord
100
AcDbLinetypeTableRecord
  2
BYBLOCK
 70
    64
  3
 
 72
    65
 73
     0
 40
0.0
 74
0
  0
LTYPE
  5
        69
100
AcDbSymbolTableRecord
100
AcDbLinetypeTableRecord
  2
BYLAYER
 70
    64
  3
 
 72
    65
 73
     0
 40
0.0
 74
0
  0
LTYPE
  5
        6A
100
AcDbSymbolTableRecord
100
AcDbLinetypeTableRecord
  2
CONTINUOUS
 70
    64
  3
--------------
 72
    65
 73
     0
 40
0.0
 74
0
  0
LTYPE
  5
        6B
100
AcDbSymbolTableRecord
100
AcDbLinetypeTableRecord
  2
C_N
 70
    64
  3
--------------
 72
    65
 73
     0
 40
0.0
 74
0
  0
LTYPE
  5
        6C
100
AcDbSymbolTableRecord
100
AcDbLinetypeTableRecord
  2
SBLU
  3
Blue Line
 70
    64
 72
    65
 73
     0
 40
0.0
 74
     0
  0
LTYPE
  5
        6D
100
AcDbSymbolTableRecord
100
AcDbLinetypeTableRecord
  2
SRED
  3
red Line
 70
    64
 72
    65
 73
     0
 40
0.0
 74
     0
  0
LTYPE
  5
        6E
100
AcDbSymbolTableRecord
100
AcDbLinetypeTableRecord
  2
SDGR
  3
Dark Green Line
 70
    64
 72
    65
 73
     0
 40
0.0
 74
     0
  0
LTYPE
  5
        6F
100
AcDbSymbolTableRecord
100
AcDbLinetypeTableRecord
  2
SORA
  3
Orange Line
 70
    64
 72
    65
 73
     0
 40
0.0
 74
     0
  0
LTYPE
  5
        70
100
AcDbSymbolTableRecord
100
AcDbLinetypeTableRecord
  2
SDBR
  3
Dark Brown Line
 70
    64
 72
    65
 73
     0
 40
0.0
 74
     0
  0
LTYPE
  5
        71
100
AcDbSymbolTableRecord
100
AcDbLinetypeTableRecord
  2
SMAG
  3
Pink (rose) Line
 70
    64
 72
    65
 73
     0
 40
0.0
 74
     0
  0
ENDTAB
  0
TABLE
  2
LAYER
  5
        72
100
AcDbSymbolTable
 70
    17
  0
LAYER
  5
        73
100
AcDbSymbolTableRecord
100
AcDbLayerTableRecord
  2
0
 70
     0
 62
     7
  6
CONTINUOUS
  0
LAYER
  5
        74
100
AcDbSymbolTableRecord
100
AcDbLayerTableRecord
  2
Properties
 70
     0
 62
     7
  6
CONTINUOUS
  0
LAYER
  5
        75
100
AcDbSymbolTableRecord
100
AcDbLayerTableRecord
  2
STATIONS
 70
     0
 62
     5
  6
CONTINUOUS
  0
LAYER
  5
        76
100
AcDbSymbolTableRecord
100
AcDbLayerTableRecord
  2
S_TAB
 70
     0
 62
     7
  6
CONTINUOUS
  0
LAYER
  5
        77
100
AcDbSymbolTableRecord
100
AcDbLayerTableRecord
  2
LEVELS
 70
     0
 62
    96
  6
CONTINUOUS
  0
LAYER
  5
        78
100
AcDbSymbolTableRecord
100
AcDbLayerTableRecord
  2
OBS_MARKER
 70
     0
 62
    96
  6
CONTINUOUS
  0
LAYER
  5
        79
100
AcDbSymbolTableRecord
100
AcDbLayerTableRecord
  2
MARKER_POINT
 70
     0
 62
     8
  6
CONTINUOUS
  0
LAYER
  5
        7A
100
AcDbSymbolTableRecord
100
AcDbLayerTableRecord
  2
BLUE_LINE
 70
     0
 62
     5
  6
CONTINUOUS
  0
LAYER
  5
        7B
100
AcDbSymbolTableRecord
100
AcDbLayerTableRecord
  2
RED_LINE
 70
     0
 62
     1
  6
CONTINUOUS
  0
LAYER
  5
        7C
100
AcDbSymbolTableRecord
100
AcDbLayerTableRecord
  2
DARK_GREEN_LINE
 70
     0
 62
    96
  6
CONTINUOUS
  0
LAYER
  5
        7D
100
AcDbSymbolTableRecord
100
AcDbLayerTableRecord
  2
ORANGE_LINE
 70
     0
 62
    30
  6
CONTINUOUS
  0
LAYER
  5
        7E
100
AcDbSymbolTableRecord
100
AcDbLayerTableRecord
  2
DARK_BROWN_LINE
 70
     0
 62
    36
  6
CONTINUOUS
  0
LAYER
  5
        7F
100
AcDbSymbolTableRecord
100
AcDbLayerTableRecord
  2
PINK_(ROSE)_LINE
 70
     0
 62
     6
  6
CONTINUOUS
  0
LAYER
  5
        80
100
AcDbSymbolTableRecord
100
AcDbLayerTableRecord
  2
REMAINING_DETAIL
 70
     0
 62
     7
  6
CONTINUOUS
  0
LAYER
  5
        81
100
AcDbSymbolTableRecord
100
AcDbLayerTableRecord
  2
TEXT
 70
     0
 62
     7
  6
CONTINUOUS
  0
LAYER
  5
        82
100
AcDbSymbolTableRecord
100
AcDbLayerTableRecord
  2
TEXT_BACKGROUND
 70
     0
 62
     7
  6
CONTINUOUS
  0
LAYER
  5
        83
100
AcDbSymbolTableRecord
100
AcDbLayerTableRecord
  2
GRID
 70
     0
 62
    96
  6
CONTINUOUS
  0
ENDTAB
  0
TABLE
  2
STYLE
  5
        84
100
AcDbSymbolTable
 70
    17
  0
STYLE
  5
        85
100
AcDbSymbolTableRecord
100
AcDbTextStyleTableRecord
  2
STANDARD
 70
     0
 40
0.0
 41
1.0
 50
0.0
 71
     0
 42
0.0
  3
arial.ttf
  0
STYLE
  5
        86
100
AcDbSymbolTableRecord
100
AcDbTextStyleTableRecord
  2
GRID_TEXT
 70
     0
 40
0.0
 41
1.0
 50
0.0
 71
     0
 42
0.0
  3
arial.ttf
  0
STYLE
  5
        87
100
AcDbSymbolTableRecord
100
AcDbTextStyleTableRecord
  2
MTP
 70
     0
 40
0.0
 41
1.0
 50
0.0
 71
     0
 42
0.0
  3
arial.ttf
  0
STYLE
  5
        88
100
AcDbSymbolTableRecord
100
AcDbTextStyleTableRecord
  2
DFLT
 70
     0
 40
1.2
 41
1.0
 50
0.0
 71
     0
 42
0.0
  3
arial.ttf
  0
STYLE
  5
        89
100
AcDbSymbolTableRecord
100
AcDbTextStyleTableRecord
  2
STNS
 70
     0
 40
2.0
 41
1.0
 50
0.0
 71
     0
 42
0.0
  3
arial.ttf
  0
STYLE
  5
        8A
100
AcDbSymbolTableRecord
100
AcDbTextStyleTableRecord
  2
FTRL
 70
     0
 40
1.2
 41
1.0
 50
0.0
 71
     0
 42
0.0
  3
arial.ttf
  0
STYLE
  5
        8B
100
AcDbSymbolTableRecord
100
AcDbTextStyleTableRecord
  2
FTRB
 70
     0
 40
1.2
 41
1.0
 50
0.0
 71
     0
 42
0.0
  3
arial.ttf
  0
STYLE
  5
        8C
100
AcDbSymbolTableRecord
100
AcDbTextStyleTableRecord
  2
2DP
 70
     0
 40
1.2
 41
1.0
 50
0.0
 71
     0
 42
0.0
  3
arial.ttf
  0
STYLE
  5
        8D
100
AcDbSymbolTableRecord
100
AcDbTextStyleTableRecord
  2
TXT1
 70
     0
 40
1.2
 41
1.0
 50
0.0
 71
     0
 42
0.0
  3
arial.ttf
  0
STYLE
  5
        8E
100
AcDbSymbolTableRecord
100
AcDbTextStyleTableRecord
  2
TCYA
 70
     0
 40
1.4
 41
1.0
 50
0.0
 71
     0
 42
0.0
  3
arial.ttf
  0
STYLE
  5
        8F
100
AcDbSymbolTableRecord
100
AcDbTextStyleTableRecord
  2
TRED
 70
     0
 40
1.4
 41
1.0
 50
0.0
 71
     0
 42
0.0
  3
arial.ttf
  0
STYLE
  5
        90
100
AcDbSymbolTableRecord
100
AcDbTextStyleTableRecord
  2
TORA
 70
     0
 40
1.4
 41
1.0
 50
0.0
 71
     0
 42
0.0
  3
arial.ttf
  0
STYLE
  5
        91
100
AcDbSymbolTableRecord
100
AcDbTextStyleTableRecord
  2
T15
 70
     0
 40
15.0
 41
1.0
 50
0.0
 71
     0
 42
0.0
  3
arial.ttf
  0
STYLE
  5
        92
100
AcDbSymbolTableRecord
100
AcDbTextStyleTableRecord
  2
T17
 70
     0
 40
17.0
 41
1.0
 50
0.0
 71
     0
 42
0.0
  3
arial.ttf
  0
STYLE
  5
        93
100
AcDbSymbolTableRecord
100
AcDbTextStyleTableRecord
  2
T25
 70
     0
 40
25.0
 41
1.0
 50
0.0
 71
     0
 42
0.0
  3
arial.ttf
  0
STYLE
  5
        94
100
AcDbSymbolTableRecord
100
AcDbTextStyleTableRecord
  2
STY4
 70
     0
 40
1.8
 41
1.0
 50
0.0
 71
     0
 42
0.0
  3
arial.ttf
  0
STYLE
  5
        95
100
AcDbSymbolTableRecord
100
AcDbTextStyleTableRecord
  2
200
 70
     0
 40
1.5
 41
1.0
 50
0.0
 71
     0
 42
0.0
  3
arial.ttf
  0
STYLE
  5
        96
100
AcDbSymbolTableRecord
100
AcDbTextStyleTableRecord
  2
500
 70
     0
 40
1.3
 41
1.0
 50
0.0
 71
     0
 42
0.0
  3
arial.ttf
  0
STYLE
  5
        97
100
AcDbSymbolTableRecord
100
AcDbTextStyleTableRecord
  2
500H
 70
     0
 40
1.3
 41
1.0
 50
0.0
 71
     0
 42
0.0
  3
arial.ttf
  0
STYLE
  5
        98
100
AcDbSymbolTableRecord
100
AcDbTextStyleTableRecord
  2
3DP
 70
     0
 40
1.2
 41
1.0
 50
0.0
 71
     0
 42
0.0
  3
arial.ttf
  0
STYLE
  5
        99
100
AcDbSymbolTableRecord
100
AcDbTextStyleTableRecord
  2
RED
 70
     0
 40
1.2
 41
1.0
 50
0.0
 71
     0
 42
0.0
  3
micross.ttf
  0
STYLE
  5
        9A
100
AcDbSymbolTableRecord
100
AcDbTextStyleTableRecord
  2
SMLL
 70
     0
 40
1.0
 41
1.0
 50
0.0
 71
     0
 42
0.0
  3
arial.ttf
  0
STYLE
  5
        9B
100
AcDbSymbolTableRecord
100
AcDbTextStyleTableRecord
  2
1DP
 70
     0
 40
1.5
 41
1.0
 50
0.0
 71
     0
 42
0.0
  3
arial.ttf
  0
STYLE
  5
        9C
100
AcDbSymbolTableRecord
100
AcDbTextStyleTableRecord
  2
PNTS
 70
     0
 40
1.2
 41
1.0
 50
0.0
 71
     0
 42
0.0
  3
arial.ttf
  0
STYLE
  5
        9D
100
AcDbSymbolTableRecord
100
AcDbTextStyleTableRecord
  2
BHG
 70
     0
 40
1.2
 41
1.0
 50
0.0
 71
     0
 42
0.0
  3
arial.ttf
  0
STYLE
  5
        9E
100
AcDbSymbolTableRecord
100
AcDbTextStyleTableRecord
  2
MHS
 70
     0
 40
1.2
 41
1.0
 50
0.0
 71
     0
 42
0.0
  3
arial.ttf
  0
ENDTAB
  0
TABLE
  2
VIEW
  5
        9F
100
AcDbSymbolTable
  0
ENDTAB
  0
TABLE
  2
UCS
  5
        A0
100
AcDbSymbolTable
  0
ENDTAB
  0
TABLE
  2
APPID
  5
        A1
100
AcDbSymbolTable
  0
APPID
  5
        A2
100
AcDbSymbolTableRecord
100
AcDbRegAppTableRecord
  2
ACAD
 70
     0
  0
ENDTAB
  0
TABLE
  2
DIMSTYLE
  5
        A3
100
AcDbSymbolTable
  0
DIMSTYLE
105
        A4
100
AcDbSymbolTableRecord
100
AcDbDimStyleTableRecord
  2
STANDARD
 70
     0
  0
ENDTAB
  0
TABLE
  2
BLOCK_RECORD
  5
        A5
100
AcDbSymbolTable
  0
BLOCK_RECORD
  5
        A6
100
AcDbSymbolTableRecord
100
AcDbBlockTableRecord
  2
*MODEL_SPACE
  0
BLOCK_RECORD
  5
        A7
100
AcDbSymbolTableRecord
100
AcDbBlockTableRecord
  2
*PAPER_SPACE
  0
BLOCK_RECORD
  5
        A8
100
AcDbSymbolTableRecord
100
AcDbBlockTableRecord
  2
T_SQUARE
  0
BLOCK_RECORD
  5
        A9
100
AcDbSymbolTableRecord
100
AcDbBlockTableRecord
  2
P_Z
  0
BLOCK_RECORD
  5
        AA
100
AcDbSymbolTableRecord
100
AcDbBlockTableRecord
  2
STATION
  0
BLOCK_RECORD
  5
        AB
100
AcDbSymbolTableRecord
100
AcDbBlockTableRecord
  2
PMKR
  0
BLOCK_RECORD
  5
        AC
100
AcDbSymbolTableRecord
100
AcDbBlockTableRecord
  2
T_20141111164746_0000001
  0
BLOCK_RECORD
  5
        AD
100
AcDbSymbolTableRecord
100
AcDbBlockTableRecord
  2
T_20141111164746_0000002
  0
BLOCK_RECORD
  5
        AE
100
AcDbSymbolTableRecord
100
AcDbBlockTableRecord
  2
T_20141111164746_0000003
  0
BLOCK_RECORD
  5
        AF
100
AcDbSymbolTableRecord
100
AcDbBlockTableRecord
  2
T_20141111164746_0000004
  0
BLOCK_RECORD
  5
        B0
100
AcDbSymbolTableRecord
100
AcDbBlockTableRecord
  2
T_20141111164746_0000005
  0
BLOCK_RECORD
  5
        B1
100
AcDbSymbolTableRecord
100
AcDbBlockTableRecord
  2
T_20141111164746_0000006
  0
BLOCK_RECORD
  5
        B2
100
AcDbSymbolTableRecord
100
AcDbBlockTableRecord
  2
T_20141111164746_0000007
  0
BLOCK_RECORD
  5
        B3
100
AcDbSymbolTableRecord
100
AcDbBlockTableRecord
  2
T_20141111164746_0000008
  0
BLOCK_RECORD
  5
        B4
100
AcDbSymbolTableRecord
100
AcDbBlockTableRecord
  2
T_20141111164746_0000009
  0
BLOCK_RECORD
  5
        B5
100
AcDbSymbolTableRecord
100
AcDbBlockTableRecord
  2
T_20141111164746_0000010
  0
BLOCK_RECORD
  5
        B6
100
AcDbSymbolTableRecord
100
AcDbBlockTableRecord
  2
T_20141111164746_0000011
  0
BLOCK_RECORD
  5
        B7
100
AcDbSymbolTableRecord
100
AcDbBlockTableRecord
  2
T_20141111164746_0000012
  0
BLOCK_RECORD
  5
        B8
100
AcDbSymbolTableRecord
100
AcDbBlockTableRecord
  2
T_20141111164746_0000013
  0
BLOCK_RECORD
  5
        B9
100
AcDbSymbolTableRecord
100
AcDbBlockTableRecord
  2
T_20141111164746_0000014
  0
BLOCK_RECORD
  5
        BA
100
AcDbSymbolTableRecord
100
AcDbBlockTableRecord
  2
T_20141111164746_0000015
  0
BLOCK_RECORD
  5
        BB
100
AcDbSymbolTableRecord
100
AcDbBlockTableRecord
  2
STATIONS_TITLE_20141111164746
  0
BLOCK_RECORD
  5
        BC
100
AcDbSymbolTableRecord
100
AcDbBlockTableRecord
  2
STATIONS_0001_20141111164746
  0
BLOCK_RECORD
  5
        BD
100
AcDbSymbolTableRecord
100
AcDbBlockTableRecord
  2
STATIONS_0002_20141111164746
  0
BLOCK_RECORD
  5
        BE
100
AcDbSymbolTableRecord
100
AcDbBlockTableRecord
  2
STATIONS_TABLE_20141111164746
  0
BLOCK_RECORD
  5
        BF
100
AcDbSymbolTableRecord
100
AcDbBlockTableRecord
  2
PROPERTIES_20141111164746
  0
ENDTAB
  0
ENDSEC
  0
SECTION
  2
BLOCKS
  0
BLOCK
  5
        C0
100
AcDbEntity
  8
0
 62
     0
100
AcDbBlockBegin
  2
*MODEL_SPACE
 70
     0
  0
ENDBLK
  5
        C1
100
AcDbEntity
 62
     0
100
AcDbBlockEnd
  0
BLOCK
  5
        C2
100
AcDbEntity
  8
0
 62
     0
100
AcDbBlockBegin
  2
*PAPER_SPACE
 70
     0
  0
ENDBLK
  5
        C3
100
AcDbEntity
 62
     0
100
AcDbBlockEnd
  0
BLOCK
  5
        C4
100
AcDbEntity
  8
0
 62
     0
100
AcDbBlockBegin
  2
T_SQUARE
 70
     0
 10
0.0
 20
0.0
  0
POLYLINE
  5
        C5
100
AcDbEntity
  8
0
 62
     0
100
AcDb2dPolyline
 66
     1
 10
0.0
 20
0.0
  0
VERTEX
  5
        C6
100
AcDbEntity
  8
0
 62
     0
100
AcDbVertex
100
AcDb2dVertex
 10
0.0
 20
0.0
  0
VERTEX
  5
        C7
100
AcDbEntity
  8
0
 62
     0
100
AcDbVertex
100
AcDb2dVertex
 10
0.0
 20
1.0
  0
VERTEX
  5
        C8
100
AcDbEntity
  8
0
 62
     0
100
AcDbVertex
100
AcDb2dVertex
 10
1.0
 20
1.0
  0
VERTEX
  5
        C9
100
AcDbEntity
  8
0
 62
     0
100
AcDbVertex
100
AcDb2dVertex
 10
1.0
 20
0.0
  0
VERTEX
  5
        CA
100
AcDbEntity
  8
0
 62
     0
100
AcDbVertex
100
AcDb2dVertex
 10
0.0
 20
0.0
  0
SEQEND
  5
        CB
100
AcDbEntity
 62
     0
  0
ENDBLK
  5
        CC
100
AcDbEntity
 62
     0
100
AcDbBlockEnd
  0
BLOCK
  5
        CD
100
AcDbEntity
  8
0
 62
     0
100
AcDbBlockBegin
  2
P_Z
 70
     0
 10
0.0
 20
0.0
  0
LINE
  5
        CE
100
AcDbEntity
  8
0
 62
     0
100
AcDbLine
 10
-0.5
 20
0.0
 11
0.5
 21
0.0
  0
LINE
  5
        CF
100
AcDbEntity
  8
0
 62
     0
100
AcDbLine
 10
0.0
 20
-0.5
 11
0.0
 21
0.5
  0
ENDBLK
  5
        D0
100
AcDbEntity
 62
     0
100
AcDbBlockEnd
  0
BLOCK
  5
        D1
100
AcDbEntity
  8
0
 62
     0
100
AcDbBlockBegin
  2
STATION
 70
     0
 10
0.0
 20
0.0
  0
LINE
  5
        D2
100
AcDbEntity
  8
0
 62
     0
100
AcDbLine
 10
1.0
 20
-0.5
 11
-1.0
 21
-0.5
  0
LINE
  5
        D3
100
AcDbEntity
  8
0
 62
     0
100
AcDbLine
 10
-1.0
 20
-0.5
 11
0.0
 21
1.0
  0
LINE
  5
        D4
100
AcDbEntity
  8
0
 62
     0
100
AcDbLine
 10
0.0
 20
1.0
 11
1.0
 21
-0.5
  0
LINE
  5
        D5
100
AcDbEntity
  8
0
 62
     0
100
AcDbLine
 10
-0.001
 20
0.0
 11
0.001
 21
0.0
  0
ENDBLK
  5
        D6
100
AcDbEntity
 62
     0
100
AcDbBlockEnd
  0
BLOCK
  5
        D7
100
AcDbEntity
  8
MARKER_POINT
 62
     0
100
AcDbBlockBegin
  2
PMKR
 70
     0
 10
0.0
 20
0.0
  0
POLYLINE
  5
        D8
100
AcDbEntity
  8
MARKER_POINT
 62
     0
100
AcDb2dPolyline
 66
     1
 10
0.0
 20
0.0
  0
VERTEX
  5
        D9
100
AcDbEntity
  8
MARKER_POINT
 62
     0
100
AcDbVertex
100
AcDb2dVertex
 10
-1.5
 20
-1.5
  0
VERTEX
  5
        DA
100
AcDbEntity
  8
MARKER_POINT
 62
     0
100
AcDbVertex
100
AcDb2dVertex
 10
1.5
 20
1.5
  0
VERTEX
  5
        DB
100
AcDbEntity
  8
MARKER_POINT
 62
     0
100
AcDbVertex
100
AcDb2dVertex
 10
0.0
 20
0.0
  0
VERTEX
  5
        DC
100
AcDbEntity
  8
MARKER_POINT
 62
     0
100
AcDbVertex
100
AcDb2dVertex
 10
-1.5
 20
1.5
  0
VERTEX
  5
        DD
100
AcDbEntity
  8
MARKER_POINT
 62
     0
100
AcDbVertex
100
AcDb2dVertex
 10
1.5
 20
-1.5
  0
SEQEND
  5
        DE
100
AcDbEntity
 62
     0
  0
ENDBLK
  5
        DF
100
AcDbEntity
 62
     0
100
AcDbBlockEnd
  0
BLOCK
  5
        E0
100
AcDbEntity
  8
TEXT
100
AcDbBlockBegin
  2
T_20141111164746_0000001
 70
     0
 10
415464.696
 20
381463.417
  0
TEXT
  5
        E1
100
AcDbEntity
  8
TEXT
 62
     7
100
AcDbText
 10
415464.696
 20
381461.917
 40
3.0
  1
Solution Feature (Cave)
  7
DFLT
 50
0.0
 41
1.0
 72
     1
 11
415464.696
 21
381461.917
100
AcDbText
 73
     0
  0
ENDBLK
  5
        E2
100
AcDbEntity
100
AcDbBlockEnd
  0
BLOCK
  5
        E3
100
AcDbEntity
  8
TEXT
100
AcDbBlockBegin
  2
T_20141111164746_0000002
 70
     0
 10
415577.718
 20
381527.985
  0
TEXT
  5
        E4
100
AcDbEntity
  8
TEXT
 62
     7
100
AcDbText
 10
415577.718
 20
381526.485
 40
3.0
  1
Possible Solution Feature
  7
DFLT
 50
0.0
 41
1.0
 72
     1
 11
415577.718
 21
381526.485
100
AcDbText
 73
     0
  0
ENDBLK
  5
        E5
100
AcDbEntity
100
AcDbBlockEnd
  0
BLOCK
  5
        E6
100
AcDbEntity
  8
TEXT
100
AcDbBlockBegin
  2
T_20141111164746_0000003
 70
     0
 10
415558.493
 20
381428.322
  0
TEXT
  5
        E7
100
AcDbEntity
  8
TEXT
 62
     7
100
AcDbText
 10
415558.493
 20
381426.822
 40
3.0
  1
Iron Stain/Tuff/Clay
  7
DFLT
 50
0.0
 41
1.0
 72
     1
 11
415558.493
 21
381426.822
100
AcDbText
 73
     0
  0
ENDBLK
  5
        E8
100
AcDbEntity
100
AcDbBlockEnd
  0
BLOCK
  5
        E9
100
AcDbEntity
  8
TEXT
100
AcDbBlockBegin
  2
T_20141111164746_0000004
 70
     0
 10
415378.086
 20
381405.625
  0
TEXT
  5
        EA
100
AcDbEntity
  8
TEXT
 62
     7
100
AcDbText
 10
415378.086
 20
381404.125
 40
3.0
  1
Iron Stain/Tuff/Clay
  7
DFLT
 50
0.0
 41
1.0
 72
     1
 11
415378.086
 21
381404.125
100
AcDbText
 73
     0
  0
ENDBLK
  5
        EB
100
AcDbEntity
100
AcDbBlockEnd
  0
BLOCK
  5
        EC
100
AcDbEntity
  8
TEXT
100
AcDbBlockBegin
  2
T_20141111164746_0000005
 70
     0
 10
415437.172
 20
381386.638
  0
TEXT
  5
        ED
100
AcDbEntity
  8
TEXT
 62
     7
100
AcDbText
 10
415437.172
 20
381385.138
 40
3.0
  1
Calcite Feature
  7
DFLT
 50
0.0
 41
1.0
 72
     1
 11
415437.172
 21
381385.138
100
AcDbText
 73
     0
  0
ENDBLK
  5
        EE
100
AcDbEntity
100
AcDbBlockEnd
  0
BLOCK
  5
        EF
100
AcDbEntity
  8
TEXT
100
AcDbBlockBegin
  2
T_20141111164746_0000006
 70
     0
 10
415015.067
 20
381468.911
  0
TEXT
  5
        F0
100
AcDbEntity
  8
TEXT
 62
     7
100
AcDbText
 10
415015.067
 20
381467.411
 40
3.0
  1
Top of Bracihopod Bed
  7
DFLT
 50
0.0
 41
1.0
 72
     1
 11
415015.067
 21
381467.411
100
AcDbText
 73
     0
  0
ENDBLK
  5
        F1
100
AcDbEntity
100
AcDbBlockEnd
  0
BLOCK
  5
        F2
100
AcDbEntity
  8
TEXT
100
AcDbBlockBegin
  2
T_20141111164746_0000007
 70
     0
 10
415312.309
 20
381384.882
  0
TEXT
  5
        F3
100
AcDbEntity
  8
TEXT
 62
     7
100
AcDbText
 10
415312.309
 20
381383.382
 40
3.0
  1
AsbianBrigantian Boundary
  7
DFLT
 50
0.0
 41
1.0
 72
     1
 11
415312.309
 21
381383.382
100
AcDbText
 73
     0
  0
ENDBLK
  5
        F4
100
AcDbEntity
100
AcDbBlockEnd
  0
BLOCK
  5
        F5
100
AcDbEntity
  8
TEXT
100
AcDbBlockBegin
  2
T_20141111164746_0000008
 70
     0
 10
415262.099
 20
381335.619
  0
TEXT
  5
        F6
100
AcDbEntity
  8
TEXT
 62
     7
100
AcDbText
 10
415262.099
 20
381334.119
 40
3.0
  1
Top of Bracihopod Bed
  7
DFLT
 50
0.0
 41
1.0
 72
     1
 11
415262.099
 21
381334.119
100
AcDbText
 73
     0
  0
ENDBLK
  5
        F7
100
AcDbEntity
100
AcDbBlockEnd
  0
BLOCK
  5
        F8
100
AcDbEntity
  8
TEXT
100
AcDbBlockBegin
  2
T_20141111164746_0000009
 70
     0
 10
415489.254
 20
381271.576
  0
TEXT
  5
        F9
100
AcDbEntity
  8
TEXT
 62
     7
100
AcDbText
 10
415489.254
 20
381270.076
 40
3.0
  1
Top of Bracihopod Bed
  7
DFLT
 50
0.0
 41
1.0
 72
     1
 11
415489.254
 21
381270.076
100
AcDbText
 73
     0
  0
ENDBLK
  5
        FA
100
AcDbEntity
100
AcDbBlockEnd
  0
BLOCK
  5
        FB
100
AcDbEntity
  8
TEXT
100
AcDbBlockBegin
  2
T_20141111164746_0000010
 70
     0
 10
415160.191
 20
381389.098
  0
TEXT
  5
        FC
100
AcDbEntity
  8
TEXT
 62
     7
100
AcDbText
 10
415160.191
 20
381387.598
 40
3.0
  1
Top of Colonial Corals
  7
DFLT
 50
0.0
 41
1.0
 72
     1
 11
415160.191
 21
381387.598
100
AcDbText
 73
     0
  0
ENDBLK
  5
        FD
100
AcDbEntity
100
AcDbBlockEnd
  0
BLOCK
  5
        FE
100
AcDbEntity
  8
TEXT
100
AcDbBlockBegin
  2
T_20141111164746_0000011
 70
     0
 10
415247.741
 20
381344.078
  0
TEXT
  5
        FF
100
AcDbEntity
  8
TEXT
 62
     7
100
AcDbText
 10
415247.741
 20
381342.578
 40
3.0
  1
Solution Pipe
  7
DFLT
 50
0.0
 41
1.0
 72
     1
 11
415247.741
 21
381342.578
100
AcDbText
 73
     0
  0
ENDBLK
  5
       100
100
AcDbEntity
100
AcDbBlockEnd
  0
BLOCK
  5
       101
100
AcDbEntity
  8
TEXT
100
AcDbBlockBegin
  2
T_20141111164746_0000012
 70
     0
 10
415208.062
 20
381142.431
  0
TEXT
  5
       102
100
AcDbEntity
  8
TEXT
 62
     7
100
AcDbText
 10
415208.062
 20
381143.331
 40
3.0
  1
Dark Band at top of face
  7
DFLT
 50
0.0
 41
1.0
 72
     1
 11
415208.062
 21
381143.331
100
AcDbText
 73
     0
  0
TEXT
  5
       103
100
AcDbEntity
  8
TEXT
 62
     7
100
AcDbText
 10
415208.062
 20
381138.531
 40
3.0
  1
for shape of bedding
  7
DFLT
 50
0.0
 41
1.0
 72
     1
 11
415208.062
 21
381138.531
100
AcDbText
 73
     0
  0
ENDBLK
  5
       104
100
AcDbEntity
100
AcDbBlockEnd
  0
BLOCK
  5
       105
100
AcDbEntity
  8
TEXT
100
AcDbBlockBegin
  2
T_20141111164746_0000013
 70
     0
 10
415225.51
 20
381501.553
  0
TEXT
  5
       106
100
AcDbEntity
  8
TEXT
 62
     7
100
AcDbText
 10
415225.51
 20
381502.453
 40
3.0
  1
Boundary between massive
  7
DFLT
 50
0.0
 41
1.0
 72
     1
 11
415225.51
 21
381502.453
100
AcDbText
 73
     0
  0
TEXT
  5
       107
100
AcDbEntity
  8
TEXT
 62
     7
100
AcDbText
 10
415225.51
 20
381497.653
 40
3.0
  1
mid-grey
  7
DFLT
 50
0.0
 41
1.0
 72
     1
 11
415225.51
 21
381497.653
100
AcDbText
 73
     0
  0
ENDBLK
  5
       108
100
AcDbEntity
100
AcDbBlockEnd
  0
BLOCK
  5
       109
100
AcDbEntity
  8
TEXT
100
AcDbBlockBegin
  2
T_20141111164746_0000014
 70
     0
 10
415224.628
 20
381383.019
  0
TEXT
  5
       10A
100
AcDbEntity
  8
TEXT
 62
     7
100
AcDbText
 10
415224.628
 20
381383.919
 40
3.0
  1
Boundary between massive
  7
DFLT
 50
0.0
 41
1.0
 72
     1
 11
415224.628
 21
381383.919
100
AcDbText
 73
     0
  0
TEXT
  5
       10B
100
AcDbEntity
  8
TEXT
 62
     7
100
AcDbText
 10
415224.628
 20
381379.119
 40
3.0
  1
mid-grey
  7
DFLT
 50
0.0
 41
1.0
 72
     1
 11
415224.628
 21
381379.119
100
AcDbText
 73
     0
  0
ENDBLK
  5
       10C
100
AcDbEntity
100
AcDbBlockEnd
  0
BLOCK
  5
       10D
100
AcDbEntity
  8
TEXT
100
AcDbBlockBegin
  2
T_20141111164746_0000015
 70
     0
 10
415233.012
 20
381402.178
  0
TEXT
  5
       10E
100
AcDbEntity
  8
TEXT
 62
     7
100
AcDbText
 10
415233.012
 20
381400.678
 40
3.0
  1
Top of Bracihopod Bed
  7
DFLT
 50
0.0
 41
1.0
 72
     1
 11
415233.012
 21
381400.678
100
AcDbText
 73
     0
  0
ENDBLK
  5
       10F
100
AcDbEntity
100
AcDbBlockEnd
  0
BLOCK
  5
       110
100
AcDbEntity
100
AcDbBlockBegin
  2
STATIONS_TITLE_20141111164746
 10
0.0
 20
0.0
 70
     0
  0
TEXT
  5
       111
100
AcDbEntity
  8
S_TAB
100
AcDbText
 10
0.0
 20
0.0
 40
2.0
  1
Station
  7
MTP
 50
0.0
 41
1.0
 72
     0
100
AcDbText
 73
     0
  0
TEXT
  5
       112
100
AcDbEntity
  8
S_TAB
100
AcDbText
 10
42.0
 20
0.0
 40
2.0
  1
Easting
  7
MTP
 50
0.0
 41
1.0
 72
     2
 11
42.0
 21
0.0
100
AcDbText
 73
     0
  0
TEXT
  5
       113
100
AcDbEntity
  8
S_TAB
100
AcDbText
 10
72.0
 20
0.0
 40
2.0
  1
Northing
  7
MTP
 50
0.0
 41
1.0
 72
     2
 11
72.0
 21
0.0
100
AcDbText
 73
     0
  0
TEXT
  5
       114
100
AcDbEntity
  8
S_TAB
100
AcDbText
 10
96.0
 20
0.0
 40
2.0
  1
Level
  7
MTP
 50
0.0
 41
1.0
 72
     2
 11
96.0
 21
0.0
100
AcDbText
 73
     0
  0
ENDBLK
  5
       115
100
AcDbEntity
100
AcDbBlockEnd
  0
BLOCK
  5
       116
100
AcDbEntity
  8
S_TAB
100
AcDbBlockBegin
  2
STATIONS_0001_20141111164746
 70
     0
 10
0.0
 20
0.0
  0
TEXT
  5
       117
100
AcDbEntity
  8
S_TAB
100
AcDbText
 10
0.0
 20
0.0
 40
2.0
  1
1
  7
MTP
 50
0.0
 41
1.0
 72
     0
100
AcDbText
 73
     0
  0
TEXT
  5
       118
100
AcDbEntity
  8
S_TAB
100
AcDbText
 10
42.0
 20
0.0
 40
2.0
  1
     415255.051
  7
MTP
 50
0.0
 41
1.0
 72
     2
 11
42.0
 21
0.0
100
AcDbText
 73
     0
  0
TEXT
  5
       119
100
AcDbEntity
  8
S_TAB
100
AcDbText
 10
72.0
 20
0.0
 40
2.0
  1
     381507.714
  7
MTP
 50
0.0
 41
1.0
 72
     2
 11
72.0
 21
0.0
100
AcDbText
 73
     0
  0
TEXT
  5
       11A
100
AcDbEntity
  8
S_TAB
100
AcDbText
 10
96.0
 20
0.0
 40
2.0
  1
     292.752
  7
MTP
 50
0.0
 41
1.0
 72
     2
 11
96.0
 21
0.0
100
AcDbText
 73
     0
  0
ENDBLK
  5
       11B
100
AcDbEntity
100
AcDbBlockEnd
  0
BLOCK
  5
       11C
100
AcDbEntity
  8
S_TAB
100
AcDbBlockBegin
  2
STATIONS_0002_20141111164746
 70
     0
 10
0.0
 20
0.0
  0
TEXT
  5
       11D
100
AcDbEntity
  8
S_TAB
100
AcDbText
 10
0.0
 20
0.0
 40
2.0
  1
20
  7
MTP
 50
0.0
 41
1.0
 72
     0
100
AcDbText
 73
     0
  0
TEXT
  5
       11E
100
AcDbEntity
  8
S_TAB
100
AcDbText
 10
42.0
 20
0.0
 40
2.0
  1
     415527.479
  7
MTP
 50
0.0
 41
1.0
 72
     2
 11
42.0
 21
0.0
100
AcDbText
 73
     0
  0
TEXT
  5
       11F
100
AcDbEntity
  8
S_TAB
100
AcDbText
 10
72.0
 20
0.0
 40
2.0
  1
     381303.932
  7
MTP
 50
0.0
 41
1.0
 72
     2
 11
72.0
 21
0.0
100
AcDbText
 73
     0
  0
TEXT
  5
       120
100
AcDbEntity
  8
S_TAB
100
AcDbText
 10
96.0
 20
0.0
 40
2.0
  1
     322.405
  7
MTP
 50
0.0
 41
1.0
 72
     2
 11
96.0
 21
0.0
100
AcDbText
 73
     0
  0
ENDBLK
  5
       121
100
AcDbEntity
100
AcDbBlockEnd
  0
BLOCK
  5
       122
100
AcDbEntity
  8
S_TAB
100
AcDbBlockBegin
  2
STATIONS_TABLE_20141111164746
 70
     0
 10
0.0
 20
0.0
  0
INSERT
  5
       123
100
AcDbEntity
  8
S_TAB
100
AcDbBlockReference
  2
STATIONS_TITLE_20141111164746
 70
     0
 10
0.0
 20
0.0
  0
INSERT
  5
       124
100
AcDbEntity
  8
S_TAB
100
AcDbBlockReference
  2
STATIONS_0001_20141111164746
 70
     0
 10
0.0
 20
-3.0
  0
INSERT
  5
       125
100
AcDbEntity
  8
S_TAB
100
AcDbBlockReference
  2
STATIONS_0002_20141111164746
 70
     0
 10
0.0
 20
-6.0
  0
ENDBLK
  5
       126
100
AcDbEntity
100
AcDbBlockEnd
  0
BLOCK
  5
       127
100
AcDbEntity
  8
Properties
100
AcDbBlockBegin
  2
PROPERTIES_20141111164746
 70
     0
 10
0.0
 20
0.0
  0
TEXT
  5
       128
100
AcDbEntity
  8
Properties
100
AcDbText
 10
0.0
 20
0.0
 40
2.0
  1
Title : C:\USERS\CHRIS BURGESS\DESKTOP\00455 HOPE\00445 - 141106 - COMBINED GEOL
  7
MTP
 50
0.0
 41
1.0
 72
     0
100
AcDbText
 73
     0
  0
TEXT
  5
       129
100
AcDbEntity
  8
Properties
100
AcDbText
 10
0.0
 20
-3.0
 40
2.0
  1
Subject : 00445 - 141106 - COMBINED GEOL
  7
MTP
 50
0.0
 41
1.0
 72
     0
100
AcDbText
 73
     0
  0
TEXT
  5
       12A
100
AcDbEntity
  8
Properties
100
AcDbText
 10
0.0
 20
-6.0
 40
2.0
  1
Comment : created using LSS v9.91.03
  7
MTP
 50
0.0
 41
1.0
 72
     0
100
AcDbText
 73
     0
  0
TEXT
  5
       12B
100
AcDbEntity
  8
Properties
100
AcDbText
 10
0.0
 20
-9.0
 40
2.0
  1
Comment : created on 2014.11.11 16:47
  7
MTP
 50
0.0
 41
1.0
 72
     0
100
AcDbText
 73
     0
  0
TEXT
  5
       12C
100
AcDbEntity
  8
Properties
100
AcDbText
 10
0.0
 20
-12.0
 40
2.0
  1
Comment : units of survey are metres
  7
MTP
 50
0.0
 41
1.0
 72
     0
100
AcDbText
 73
     0
  0
ENDBLK
  5
       12D
100
AcDbEntity
100
AcDbBlockEnd
  0
ENDSEC
  0
SECTION
  2
ENTITIES
  0
POLYLINE
  5
       12E
100
AcDbEntity
  8
RED_LINE
 62
     1
100
AcDb3dPolyline
  6
SRED
 66
     1
 10
0.0
 20
0.0
 70
     8
  0
VERTEX
  5
       12F
100
AcDbEntity
  8
RED_LINE
 62
     1
100
AcDbVertex
100
AcDb3dPolylineVertex
  6
SRED
 10
415183.89
 20
381348.708
 30
317.49
 70
    32
  0
VERTEX
  5
       130
100
AcDbEntity
  8
RED_LINE
 62
     1
100
AcDbVertex
100
AcDb3dPolylineVertex
  6
SRED
 10
415181.989
 20
381349.012
 30
317.974
 70
    32
  0
SEQEND
  5
       131
100
AcDbEntity
  0
POLYLINE
  5
       132
100
AcDbEntity
  8
DARK_GREEN_LINE
 62
    96
100
AcDb3dPolyline
  6
SDGR
 66
     1
 10
0.0
 20
0.0
 70
     8
  0
VERTEX
  5
       133
100
AcDbEntity
  8
DARK_GREEN_LINE
 62
    96
100
AcDbVertex
100
AcDb3dPolylineVertex
  6
SDGR
 10
415177.655
 20
381358.016
 30
317.847
 70
    32
  0
VERTEX
  5
       134
100
AcDbEntity
  8
DARK_GREEN_LINE
 62
    96
100
AcDbVertex
100
AcDb3dPolylineVertex
  6
SDGR
 10
415172.384
 20
381363.978
 30
318.125
 70
    32
  0
VERTEX
  5
       135
100
AcDbEntity
  8
DARK_GREEN_LINE
 62
    96
100
AcDbVertex
100
AcDb3dPolylineVertex
  6
SDGR
 10
415169.814
 20
381364.431
 30
318.219
 70
    32
  0
VERTEX
  5
       136
100
AcDbEntity
  8
DARK_GREEN_LINE
 62
    96
100
AcDbVertex
100
AcDb3dPolylineVertex
  6
SDGR
 10
415159.963
 20
381381.903
 30
318.564
 70
    32
  0
VERTEX
  5
       137
100
AcDbEntity
  8
DARK_GREEN_LINE
 62
    96
100
AcDbVertex
100
AcDb3dPolylineVertex
  6
SDGR
 10
415154.833
 20
381384.156
 30
318.512
 70
    32
  0
VERTEX
  5
       138
100
AcDbEntity
  8
DARK_GREEN_LINE
 62
    96
100
AcDbVertex
100
AcDb3dPolylineVertex
  6
SDGR
 10
415145.258
 20
381384.319
 30
318.959
 70
    32
  0
VERTEX
  5
       139
100
AcDbEntity
  8
DARK_GREEN_LINE
 62
    96
100
AcDbVertex
100
AcDb3dPolylineVertex
  6
SDGR
 10
415133.61
 20
381381.904
 30
319.795
 70
    32
  0
VERTEX
  5
       13A
100
AcDbEntity
  8
DARK_GREEN_LINE
 62
    96
100
AcDbVertex
100
AcDb3dPolylineVertex
  6
SDGR
 10
415130.843
 20
381381.634
 30
319.992
 70
    32
  0
VERTEX
  5
       13B
100
AcDbEntity
  8
DARK_GREEN_LINE
 62
    96
100
AcDbVertex
100
AcDb3dPolylineVertex
  6
SDGR
 10
415128.917
 20
381385.785
 30
319.882
 70
    32
  0
SEQEND
  5
       13C
100
AcDbEntity
  0
POLYLINE
  5
       13D
100
AcDbEntity
  8
DARK_BROWN_LINE
 62
    36
100
AcDb3dPolyline
  6
SDBR
 66
     1
 10
0.0
 20
0.0
 70
     8
  0
VERTEX
  5
       13E
100
AcDbEntity
  8
DARK_BROWN_LINE
 62
    36
100
AcDbVertex
100
AcDb3dPolylineVertex
  6
SDBR
 10
415228.757
 20
381126.033
 30
373.536
 70
    32
  0
VERTEX
  5
       13F
100
AcDbEntity
  8
DARK_BROWN_LINE
 62
    36
100
AcDbVertex
100
AcDb3dPolylineVertex
  6
SDBR
 10
415218.238
 20
381123.099
 30
374.391
 70
    32
  0
VERTEX
  5
       140
100
AcDbEntity
  8
DARK_BROWN_LINE
 62
    36
100
AcDbVertex
100
AcDb3dPolylineVertex
  6
SDBR
 10
415209.123
 20
381119.216
 30
375.434
 70
    32
  0
VERTEX
  5
       141
100
AcDbEntity
  8
DARK_BROWN_LINE
 62
    36
100
AcDbVertex
100
AcDb3dPolylineVertex
  6
SDBR
 10
415197.789
 20
381115.902
 30
376.432
 70
    32
  0
VERTEX
  5
       142
100
AcDbEntity
  8
DARK_BROWN_LINE
 62
    36
100
AcDbVertex
100
AcDb3dPolylineVertex
  6
SDBR
 10
415138.504
 20
381189.132
 30
374.936
 70
    32
  0
VERTEX
  5
       143
100
AcDbEntity
  8
DARK_BROWN_LINE
 62
    36
100
AcDbVertex
100
AcDb3dPolylineVertex
  6
SDBR
 10
415131.228
 20
381194.068
 30
374.127
 70
    32
  0
VERTEX
  5
       144
100
AcDbEntity
  8
DARK_BROWN_LINE
 62
    36
100
AcDbVertex
100
AcDb3dPolylineVertex
  6
SDBR
 10
415126.559
 20
381196.347
 30
374.039
 70
    32
  0
VERTEX
  5
       145
100
AcDbEntity
  8
DARK_BROWN_LINE
 62
    36
100
AcDbVertex
100
AcDb3dPolylineVertex
  6
SDBR
 10
415121.848
 20
381202.278
 30
374.698
 70
    32
  0
SEQEND
  5
       146
100
AcDbEntity
  0
POLYLINE
  5
       147
100
AcDbEntity
  8
RED_LINE
 62
     1
100
AcDb3dPolyline
  6
SRED
 66
     1
 10
0.0
 20
0.0
 70
     8
  0
VERTEX
  5
       148
100
AcDbEntity
  8
RED_LINE
 62
     1
100
AcDbVertex
100
AcDb3dPolylineVertex
  6
SRED
 10
415108.642
 20
381255.503
 30
362.87
 70
    32
  0
VERTEX
  5
       149
100
AcDbEntity
  8
RED_LINE
 62
     1
100
AcDbVertex
100
AcDb3dPolylineVertex
  6
SRED
 10
415091.318
 20
381266.126
 30
363.554
 70
    32
  0
VERTEX
  5
       14A
100
AcDbEntity
  8
RED_LINE
 62
     1
100
AcDbVertex
100
AcDb3dPolylineVertex
  6
SRED
 10
415073.73
 20
381281.904
 30
363.975
 70
    32
  0
VERTEX
  5
       14B
100
AcDbEntity
  8
RED_LINE
 62
     1
100
AcDbVertex
100
AcDb3dPolylineVertex
  6
SRED
 10
415056.377
 20
381302.862
 30
365.691
 70
    32
  0
VERTEX
  5
       14C
100
AcDbEntity
  8
RED_LINE
 62
     1
100
AcDbVertex
100
AcDb3dPolylineVertex
  6
SRED
 10
415047.625
 20
381310.771
 30
366.897
 70
    32
  0
SEQEND
  5
       14D
100
AcDbEntity
  0
POLYLINE
  5
       14E
100
AcDbEntity
  8
RED_LINE
 62
     1
100
AcDb3dPolyline
  6
SRED
 66
     1
 10
0.0
 20
0.0
 70
     8
  0
VERTEX
  5
       14F
100
AcDbEntity
  8
RED_LINE
 62
     1
100
AcDbVertex
100
AcDb3dPolylineVertex
  6
SRED
 10
415163.502
 20
381194.171
 30
356.608
 70
    32
  0
VERTEX
  5
       150
100
AcDbEntity
  8
RED_LINE
 62
     1
100
AcDbVertex
100
AcDb3dPolylineVertex
  6
SRED
 10
415169.952
 20
381189.005
 30
356.438
 70
    32
  0
VERTEX
  5
       151
100
AcDbEntity
  8
RED_LINE
 62
     1
100
AcDbVertex
100
AcDb3dPolylineVertex
  6
SRED
 10
415177.499
 20
381182.822
 30
355.868
 70
    32
  0
VERTEX
  5
       152
100
AcDbEntity
  8
RED_LINE
 62
     1
100
AcDbVertex
100
AcDb3dPolylineVertex
  6
SRED
 10
415181.442
 20
381177.15
 30
355.56
 70
    32
  0
VERTEX
  5
       153
100
AcDbEntity
  8
RED_LINE
 62
     1
100
AcDbVertex
100
AcDb3dPolylineVertex
  6
SRED
 10
415189.228
 20
381172.219
 30
355.13
 70
    32
  0
VERTEX
  5
       154
100
AcDbEntity
  8
RED_LINE
 62
     1
100
AcDbVertex
100
AcDb3dPolylineVertex
  6
SRED
 10
415196.198
 20
381171.94
 30
354.462
 70
    32
  0
SEQEND
  5
       155
100
AcDbEntity
  0
POLYLINE
  5
       156
100
AcDbEntity
  8
RED_LINE
 62
     1
100
AcDb3dPolyline
  6
SRED
 66
     1
 10
0.0
 20
0.0
 70
     8
  0
VERTEX
  5
       157
100
AcDbEntity
  8
RED_LINE
 62
     1
100
AcDbVertex
100
AcDb3dPolylineVertex
  6
SRED
 10
415038.187
 20
381457.379
 30
347.134
 70
    32
  0
VERTEX
  5
       158
100
AcDbEntity
  8
RED_LINE
 62
     1
100
AcDbVertex
100
AcDb3dPolylineVertex
  6
SRED
 10
415033.885
 20
381453.783
 30
347.952
 70
    32
  0
VERTEX
  5
       159
100
AcDbEntity
  8
RED_LINE
 62
     1
100
AcDbVertex
100
AcDb3dPolylineVertex
  6
SRED
 10
415021.792
 20
381444.878
 30
349.184
 70
    32
  0
VERTEX
  5
       15A
100
AcDbEntity
  8
RED_LINE
 62
     1
100
AcDbVertex
100
AcDb3dPolylineVertex
  6
SRED
 10
415012.572
 20
381438.717
 30
350.548
 70
    32
  0
VERTEX
  5
       15B
100
AcDbEntity
  8
RED_LINE
 62
     1
100
AcDbVertex
100
AcDb3dPolylineVertex
  6
SRED
 10
415006.385
 20
381433.512
 30
350.56
 70
    32
  0
VERTEX
  5
       15C
100
AcDbEntity
  8
RED_LINE
 62
     1
100
AcDbVertex
100
AcDb3dPolylineVertex
  6
SRED
 10
415034.114
 20
381380.651
 30
346.763
 70
    32
  0
SEQEND
  5
       15D
100
AcDbEntity
  0
POLYLINE
  5
       15E
100
AcDbEntity
  8
RED_LINE
 62
     1
100
AcDb3dPolyline
  6
SRED
 66
     1
 10
0.0
 20
0.0
 70
     8
  0
VERTEX
  5
       15F
100
AcDbEntity
  8
RED_LINE
 62
     1
100
AcDbVertex
100
AcDb3dPolylineVertex
  6
SRED
 10
415316.339
 20
381198.943
 30
340.865
 70
    32
  0
VERTEX
  5
       160
100
AcDbEntity
  8
RED_LINE
 62
     1
100
AcDbVertex
100
AcDb3dPolylineVertex
  6
SRED
 10
415312.915
 20
381199.73
 30
340.968
 70
    32
  0
VERTEX
  5
       161
100
AcDbEntity
  8
RED_LINE
 62
     1
100
AcDbVertex
100
AcDb3dPolylineVertex
  6
SRED
 10
415304.355
 20
381198.282
 30
341.548
 70
    32
  0
VERTEX
  5
       162
100
AcDbEntity
  8
RED_LINE
 62
     1
100
AcDbVertex
100
AcDb3dPolylineVertex
  6
SRED
 10
415285.315
 20
381192.884
 30
342.749
 70
    32
  0
VERTEX
  5
       163
100
AcDbEntity
  8
RED_LINE
 62
     1
100
AcDbVertex
100
AcDb3dPolylineVertex
  6
SRED
 10
415273.666
 20
381191.466
 30
343.272
 70
    32
  0
VERTEX
  5
       164
100
AcDbEntity
  8
RED_LINE
 62
     1
100
AcDbVertex
100
AcDb3dPolylineVertex
  6
SRED
 10
415267.63
 20
381200.198
 30
342.84
 70
    32
  0
VERTEX
  5
       165
100
AcDbEntity
  8
RED_LINE
 62
     1
100
AcDbVertex
100
AcDb3dPolylineVertex
  6
SRED
 10
415259.868
 20
381208.266
 30
343.322
 70
    32
  0
VERTEX
  5
       166
100
AcDbEntity
  8
RED_LINE
 62
     1
100
AcDbVertex
100
AcDb3dPolylineVertex
  6
SRED
 10
415252.052
 20
381220.053
 30
343.689
 70
    32
  0
VERTEX
  5
       167
100
AcDbEntity
  8
RED_LINE
 62
     1
100
AcDbVertex
100
AcDb3dPolylineVertex
  6
SRED
 10
415238.653
 20
381233.971
 30
344.152
 70
    32
  0
VERTEX
  5
       168
100
AcDbEntity
  8
RED_LINE
 62
     1
100
AcDbVertex
100
AcDb3dPolylineVertex
  6
SRED
 10
415223.107
 20
381243.324
 30
345.208
 70
    32
  0
VERTEX
  5
       169
100
AcDbEntity
  8
RED_LINE
 62
     1
100
AcDbVertex
100
AcDb3dPolylineVertex
  6
SRED
 10
415203.17
 20
381243.801
 30
351.372
 70
    32
  0
VERTEX
  5
       16A
100
AcDbEntity
  8
RED_LINE
 62
     1
100
AcDbVertex
100
AcDb3dPolylineVertex
  6
SRED
 10
415193.578
 20
381242.0
 30
350.852
 70
    32
  0
VERTEX
  5
       16B
100
AcDbEntity
  8
RED_LINE
 62
     1
100
AcDbVertex
100
AcDb3dPolylineVertex
  6
SRED
 10
415184.829
 20
381239.844
 30
350.312
 70
    32
  0
VERTEX
  5
       16C
100
AcDbEntity
  8
RED_LINE
 62
     1
100
AcDbVertex
100
AcDb3dPolylineVertex
  6
SRED
 10
415176.855
 20
381239.219
 30
350.453
 70
    32
  0
VERTEX
  5
       16D
100
AcDbEntity
  8
RED_LINE
 62
     1
100
AcDbVertex
100
AcDb3dPolylineVertex
  6
SRED
 10
415171.361
 20
381237.455
 30
350.767
 70
    32
  0
VERTEX
  5
       16E
100
AcDbEntity
  8
RED_LINE
 62
     1
100
AcDbVertex
100
AcDb3dPolylineVertex
  6
SRED
 10
415168.411
 20
381237.638
 30
350.799
 70
    32
  0
VERTEX
  5
       16F
100
AcDbEntity
  8
RED_LINE
 62
     1
100
AcDbVertex
100
AcDb3dPolylineVertex
  6
SRED
 10
415164.163
 20
381240.198
 30
351.29
 70
    32
  0
VERTEX
  5
       170
100
AcDbEntity
  8
RED_LINE
 62
     1
100
AcDbVertex
100
AcDb3dPolylineVertex
  6
SRED
 10
415157.509
 20
381246.518
 30
351.144
 70
    32
  0
VERTEX
  5
       171
100
AcDbEntity
  8
RED_LINE
 62
     1
100
AcDbVertex
100
AcDb3dPolylineVertex
  6
SRED
 10
415151.241
 20
381253.626
 30
350.713
 70
    32
  0
VERTEX
  5
       172
100
AcDbEntity
  8
RED_LINE
 62
     1
100
AcDbVertex
100
AcDb3dPolylineVertex
  6
SRED
 10
415144.569
 20
381256.433
 30
350.884
 70
    32
  0
VERTEX
  5
       173
100
AcDbEntity
  8
RED_LINE
 62
     1
100
AcDbVertex
100
AcDb3dPolylineVertex
  6
SRED
 10
415137.788
 20
381262.396
 30
350.698
 70
    32
  0
VERTEX
  5
       174
100
AcDbEntity
  8
RED_LINE
 62
     1
100
AcDbVertex
100
AcDb3dPolylineVertex
  6
SRED
 10
415131.665
 20
381269.413
 30
350.791
 70
    32
  0
VERTEX
  5
       175
100
AcDbEntity
  8
RED_LINE
 62
     1
100
AcDbVertex
100
AcDb3dPolylineVertex
  6
SRED
 10
415118.425
 20
381280.715
 30
352.04
 70
    32
  0
VERTEX
  5
       176
100
AcDbEntity
  8
RED_LINE
 62
     1
100
AcDbVertex
100
AcDb3dPolylineVertex
  6
SRED
 10
415100.047
 20
381296.192
 30
353.473
 70
    32
  0
VERTEX
  5
       177
100
AcDbEntity
  8
RED_LINE
 62
     1
100
AcDbVertex
100
AcDb3dPolylineVertex
  6
SRED
 10
415073.117
 20
381322.783
 30
355.409
 70
    32
  0
VERTEX
  5
       178
100
AcDbEntity
  8
RED_LINE
 62
     1
100
AcDbVertex
100
AcDb3dPolylineVertex
  6
SRED
 10
415062.938
 20
381339.485
 30
354.86
 70
    32
  0
VERTEX
  5
       179
100
AcDbEntity
  8
RED_LINE
 62
     1
100
AcDbVertex
100
AcDb3dPolylineVertex
  6
SRED
 10
415044.746
 20
381361.531
 30
356.167
 70
    32
  0
VERTEX
  5
       17A
100
AcDbEntity
  8
RED_LINE
 62
     1
100
AcDbVertex
100
AcDb3dPolylineVertex
  6
SRED
 10
415031.299
 20
381380.21
 30
358.411
 70
    32
  0
SEQEND
  5
       17B
100
AcDbEntity
  0
POLYLINE
  5
       17C
100
AcDbEntity
  8
RED_LINE
 62
     1
100
AcDb3dPolyline
  6
SRED
 66
     1
 10
0.0
 20
0.0
 70
     8
  0
VERTEX
  5
       17D
100
AcDbEntity
  8
RED_LINE
 62
     1
100
AcDbVertex
100
AcDb3dPolylineVertex
  6
SRED
 10
415315.734
 20
381199.355
 30
344.985
 70
    32
  0
VERTEX
  5
       17E
100
AcDbEntity
  8
RED_LINE
 62
     1
100
AcDbVertex
100
AcDb3dPolylineVertex
  6
SRED
 10
415310.263
 20
381200.652
 30
345.343
 70
    32
  0
VERTEX
  5
       17F
100
AcDbEntity
  8
RED_LINE
 62
     1
100
AcDbVertex
100
AcDb3dPolylineVertex
  6
SRED
 10
415275.27
 20
381193.706
 30
348.448
 70
    32
  0
VERTEX
  5
       180
100
AcDbEntity
  8
RED_LINE
 62
     1
100
AcDbVertex
100
AcDb3dPolylineVertex
  6
SRED
 10
415267.297
 20
381204.362
 30
348.316
 70
    32
  0
VERTEX
  5
       181
100
AcDbEntity
  8
RED_LINE
 62
     1
100
AcDbVertex
100
AcDb3dPolylineVertex
  6
SRED
 10
415259.724
 20
381212.35
 30
348.986
 70
    32
  0
VERTEX
  5
       182
100
AcDbEntity
  8
RED_LINE
 62
     1
100
AcDbVertex
100
AcDb3dPolylineVertex
  6
SRED
 10
415252.529
 20
381220.592
 30
349.492
 70
    32
  0
VERTEX
  5
       183
100
AcDbEntity
  8
RED_LINE
 62
     1
100
AcDbVertex
100
AcDb3dPolylineVertex
  6
SRED
 10
415236.687
 20
381237.273
 30
350.287
 70
    32
  0
VERTEX
  5
       184
100
AcDbEntity
  8
RED_LINE
 62
     1
100
AcDbVertex
100
AcDb3dPolylineVertex
  6
SRED
 10
415224.312
 20
381244.884
 30
351.028
 70
    32
  0
VERTEX
  5
       185
100
AcDbEntity
  8
RED_LINE
 62
     1
100
AcDbVertex
100
AcDb3dPolylineVertex
  6
SRED
 10
415216.043
 20
381247.71
 30
342.395
 70
    32
  0
VERTEX
  5
       186
100
AcDbEntity
  8
RED_LINE
 62
     1
100
AcDbVertex
100
AcDb3dPolylineVertex
  6
SRED
 10
415208.669
 20
381246.623
 30
345.029
 70
    32
  0
VERTEX
  5
       187
100
AcDbEntity
  8
RED_LINE
 62
     1
100
AcDbVertex
100
AcDb3dPolylineVertex
  6
SRED
 10
415206.65
 20
381246.499
 30
346.317
 70
    32
  0
VERTEX
  5
       188
100
AcDbEntity
  8
RED_LINE
 62
     1
100
AcDbVertex
100
AcDb3dPolylineVertex
  6
SRED
 10
415198.28
 20
381245.269
 30
345.727
 70
    32
  0
VERTEX
  5
       189
100
AcDbEntity
  8
RED_LINE
 62
     1
100
AcDbVertex
100
AcDb3dPolylineVertex
  6
SRED
 10
415189.583
 20
381243.439
 30
345.142
 70
    32
  0
VERTEX
  5
       18A
100
AcDbEntity
  8
RED_LINE
 62
     1
100
AcDbVertex
100
AcDb3dPolylineVertex
  6
SRED
 10
415182.456
 20
381241.106
 30
344.732
 70
    32
  0
VERTEX
  5
       18B
100
AcDbEntity
  8
RED_LINE
 62
     1
100
AcDbVertex
100
AcDb3dPolylineVertex
  6
SRED
 10
415174.715
 20
381240.225
 30
344.945
 70
    32
  0
VERTEX
  5
       18C
100
AcDbEntity
  8
RED_LINE
 62
     1
100
AcDbVertex
100
AcDb3dPolylineVertex
  6
SRED
 10
415168.572
 20
381239.406
 30
344.936
 70
    32
  0
VERTEX
  5
       18D
100
AcDbEntity
  8
RED_LINE
 62
     1
100
AcDbVertex
100
AcDb3dPolylineVertex
  6
SRED
 10
415160.544
 20
381244.338
 30
345.185
 70
    32
  0
VERTEX
  5
       18E
100
AcDbEntity
  8
RED_LINE
 62
     1
100
AcDbVertex
100
AcDb3dPolylineVertex
  6
SRED
 10
415157.224
 20
381250.367
 30
345.275
 70
    32
  0
VERTEX
  5
       18F
100
AcDbEntity
  8
RED_LINE
 62
     1
100
AcDbVertex
100
AcDb3dPolylineVertex
  6
SRED
 10
415151.014
 20
381254.206
 30
345.013
 70
    32
  0
VERTEX
  5
       190
100
AcDbEntity
  8
RED_LINE
 62
     1
100
AcDbVertex
100
AcDb3dPolylineVertex
  6
SRED
 10
415149.998
 20
381254.862
 30
342.147
 70
    32
  0
VERTEX
  5
       191
100
AcDbEntity
  8
RED_LINE
 62
     1
100
AcDbVertex
100
AcDb3dPolylineVertex
  6
SRED
 10
415140.891
 20
381260.692
 30
341.882
 70
    32
  0
SEQEND
  5
       192
100
AcDbEntity
  0
POLYLINE
  5
       193
100
AcDbEntity
  8
RED_LINE
 62
     1
100
AcDb3dPolyline
  6
SRED
 66
     1
 10
0.0
 20
0.0
 70
     8
  0
VERTEX
  5
       194
100
AcDbEntity
  8
RED_LINE
 62
     1
100
AcDbVertex
100
AcDb3dPolylineVertex
  6
SRED
 10
415154.637
 20
381545.353
 30
329.079
 70
    32
  0
VERTEX
  5
       195
100
AcDbEntity
  8
RED_LINE
 62
     1
100
AcDbVertex
100
AcDb3dPolylineVertex
  6
SRED
 10
415138.867
 20
381533.928
 30
331.15
 70
    32
  0
VERTEX
  5
       196
100
AcDbEntity
  8
RED_LINE
 62
     1
100
AcDbVertex
100
AcDb3dPolylineVertex
  6
SRED
 10
415111.367
 20
381514.471
 30
332.564
 70
    32
  0
VERTEX
  5
       197
100
AcDbEntity
  8
RED_LINE
 62
     1
100
AcDbVertex
100
AcDb3dPolylineVertex
  6
SRED
 10
415085.496
 20
381496.919
 30
333.557
 70
    32
  0
VERTEX
  5
       198
100
AcDbEntity
  8
RED_LINE
 62
     1
100
AcDbVertex
100
AcDb3dPolylineVertex
  6
SRED
 10
415069.35
 20
381468.479
 30
334.014
 70
    32
  0
VERTEX
  5
       199
100
AcDbEntity
  8
RED_LINE
 62
     1
100
AcDbVertex
100
AcDb3dPolylineVertex
  6
SRED
 10
415071.533
 20
381458.606
 30
335.72
 70
    32
  0
VERTEX
  5
       19A
100
AcDbEntity
  8
RED_LINE
 62
     1
100
AcDbVertex
100
AcDb3dPolylineVertex
  6
SRED
 10
415063.711
 20
381444.795
 30
336.43
 70
    32
  0
VERTEX
  5
       19B
100
AcDbEntity
  8
RED_LINE
 62
     1
100
AcDbVertex
100
AcDb3dPolylineVertex
  6
SRED
 10
415056.128
 20
381432.987
 30
337.265
 70
    32
  0
VERTEX
  5
       19C
100
AcDbEntity
  8
RED_LINE
 62
     1
100
AcDbVertex
100
AcDb3dPolylineVertex
  6
SRED
 10
415062.594
 20
381422.118
 30
336.439
 70
    32
  0
VERTEX
  5
       19D
100
AcDbEntity
  8
RED_LINE
 62
     1
100
AcDbVertex
100
AcDb3dPolylineVertex
  6
SRED
 10
415070.658
 20
381408.532
 30
335.326
 70
    32
  0
VERTEX
  5
       19E
100
AcDbEntity
  8
RED_LINE
 62
     1
100
AcDbVertex
100
AcDb3dPolylineVertex
  6
SRED
 10
415084.236
 20
381390.494
 30
334.97
 70
    32
  0
VERTEX
  5
       19F
100
AcDbEntity
  8
RED_LINE
 62
     1
100
AcDbVertex
100
AcDb3dPolylineVertex
  6
SRED
 10
415087.925
 20
381384.656
 30
334.481
 70
    32
  0
VERTEX
  5
       1A0
100
AcDbEntity
  8
RED_LINE
 62
     1
100
AcDbVertex
100
AcDb3dPolylineVertex
  6
SRED
 10
415092.169
 20
381370.586
 30
334.51
 70
    32
  0
VERTEX
  5
       1A1
100
AcDbEntity
  8
RED_LINE
 62
     1
100
AcDbVertex
100
AcDb3dPolylineVertex
  6
SRED
 10
415098.311
 20
381365.001
 30
334.349
 70
    32
  0
VERTEX
  5
       1A2
100
AcDbEntity
  8
RED_LINE
 62
     1
100
AcDbVertex
100
AcDb3dPolylineVertex
  6
SRED
 10
415107.485
 20
381347.84
 30
333.838
 70
    32
  0
VERTEX
  5
       1A3
100
AcDbEntity
  8
RED_LINE
 62
     1
100
AcDbVertex
100
AcDb3dPolylineVertex
  6
SRED
 10
415125.195
 20
381316.877
 30
333.005
 70
    32
  0
VERTEX
  5
       1A4
100
AcDbEntity
  8
RED_LINE
 62
     1
100
AcDbVertex
100
AcDb3dPolylineVertex
  6
SRED
 10
415135.777
 20
381307.073
 30
333.364
 70
    32
  0
VERTEX
  5
       1A5
100
AcDbEntity
  8
RED_LINE
 62
     1
100
AcDbVertex
100
AcDb3dPolylineVertex
  6
SRED
 10
415140.83
 20
381305.521
 30
332.632
 70
    32
  0
VERTEX
  5
       1A6
100
AcDbEntity
  8
RED_LINE
 62
     1
100
AcDbVertex
100
AcDb3dPolylineVertex
  6
SRED
 10
415101.455
 20
381360.884
 30
328.991
 70
    32
  0
VERTEX
  5
       1A7
100
AcDbEntity
  8
RED_LINE
 62
     1
100
AcDbVertex
100
AcDb3dPolylineVertex
  6
SRED
 10
415086.32
 20
381384.213
 30
330.728
 70
    32
  0
VERTEX
  5
       1A8
100
AcDbEntity
  8
RED_LINE
 62
     1
100
AcDbVertex
100
AcDb3dPolylineVertex
  6
SRED
 10
415080.058
 20
381396.895
 30
331.564
 70
    32
  0
VERTEX
  5
       1A9
100
AcDbEntity
  8
RED_LINE
 62
     1
100
AcDbVertex
100
AcDb3dPolylineVertex
  6
SRED
 10
415076.081
 20
381403.291
 30
331.512
 70
    32
  0
VERTEX
  5
       1AA
100
AcDbEntity
  8
RED_LINE
 62
     1
100
AcDbVertex
100
AcDb3dPolylineVertex
  6
SRED
 10
415069.459
 20
381411.695
 30
333.052
 70
    32
  0
VERTEX
  5
       1AB
100
AcDbEntity
  8
RED_LINE
 62
     1
100
AcDbVertex
100
AcDb3dPolylineVertex
  6
SRED
 10
415061.368
 20
381425.385
 30
333.908
 70
    32
  0
VERTEX
  5
       1AC
100
AcDbEntity
  8
RED_LINE
 62
     1
100
AcDbVertex
100
AcDb3dPolylineVertex
  6
SRED
 10
415056.89
 20
381433.928
 30
335.395
 70
    32
  0
VERTEX
  5
       1AD
100
AcDbEntity
  8
RED_LINE
 62
     1
100
AcDbVertex
100
AcDb3dPolylineVertex
  6
SRED
 10
415063.009
 20
381442.762
 30
333.682
 70
    32
  0
VERTEX
  5
       1AE
100
AcDbEntity
  8
RED_LINE
 62
     1
100
AcDbVertex
100
AcDb3dPolylineVertex
  6
SRED
 10
415069.989
 20
381455.572
 30
331.653
 70
    32
  0
VERTEX
  5
       1AF
100
AcDbEntity
  8
RED_LINE
 62
     1
100
AcDbVertex
100
AcDb3dPolylineVertex
  6
SRED
 10
415079.37
 20
381465.966
 30
330.584
 70
    32
  0
VERTEX
  5
       1B0
100
AcDbEntity
  8
RED_LINE
 62
     1
100
AcDbVertex
100
AcDb3dPolylineVertex
  6
SRED
 10
415087.517
 20
381480.12
 30
329.351
 70
    32
  0
SEQEND
  5
       1B1
100
AcDbEntity
  0
POLYLINE
  5
       1B2
100
AcDbEntity
  8
RED_LINE
 62
     1
100
AcDb3dPolyline
  6
SRED
 66
     1
 10
0.0
 20
0.0
 70
     8
  0
VERTEX
  5
       1B3
100
AcDbEntity
  8
RED_LINE
 62
     1
100
AcDbVertex
100
AcDb3dPolylineVertex
  6
SRED
 10
415118.827
 20
381398.744
 30
327.86
 70
    32
  0
VERTEX
  5
       1B4
100
AcDbEntity
  8
RED_LINE
 62
     1
100
AcDbVertex
100
AcDb3dPolylineVertex
  6
SRED
 10
415113.93
 20
381411.852
 30
327.12
 70
    32
  0
VERTEX
  5
       1B5
100
AcDbEntity
  8
RED_LINE
 62
     1
100
AcDbVertex
100
AcDb3dPolylineVertex
  6
SRED
 10
415104.542
 20
381433.923
 30
327.12
 70
    32
  0
VERTEX
  5
       1B6
100
AcDbEntity
  8
RED_LINE
 62
     1
100
AcDbVertex
100
AcDb3dPolylineVertex
  6
SRED
 10
415104.222
 20
381448.094
 30
326.234
 70
    32
  0
VERTEX
  5
       1B7
100
AcDbEntity
  8
RED_LINE
 62
     1
100
AcDbVertex
100
AcDb3dPolylineVertex
  6
SRED
 10
415106.57
 20
381469.602
 30
326.87
 70
    32
  0
VERTEX
  5
       1B8
100
AcDbEntity
  8
RED_LINE
 62
     1
100
AcDbVertex
100
AcDb3dPolylineVertex
  6
SRED
 10
415110.89
 20
381489.776
 30
327.621
 70
    32
  0
VERTEX
  5
       1B9
100
AcDbEntity
  8
RED_LINE
 62
     1
100
AcDbVertex
100
AcDb3dPolylineVertex
  6
SRED
 10
415130.686
 20
381503.538
 30
327.2
 70
    32
  0
VERTEX
  5
       1BA
100
AcDbEntity
  8
RED_LINE
 62
     1
100
AcDbVertex
100
AcDb3dPolylineVertex
  6
SRED
 10
415150.744
 20
381516.911
 30
326.432
 70
    32
  0
VERTEX
  5
       1BB
100
AcDbEntity
  8
RED_LINE
 62
     1
100
AcDbVertex
100
AcDb3dPolylineVertex
  6
SRED
 10
415169.601
 20
381529.153
 30
325.449
 70
    32
  0
VERTEX
  5
       1BC
100
AcDbEntity
  8
RED_LINE
 62
     1
100
AcDbVertex
100
AcDb3dPolylineVertex
  6
SRED
 10
415194.445
 20
381540.739
 30
324.41
 70
    32
  0
SEQEND
  5
       1BD
100
AcDbEntity
  0
POLYLINE
  5
       1BE
100
AcDbEntity
  8
RED_LINE
 62
     1
100
AcDb3dPolyline
  6
SRED
 66
     1
 10
0.0
 20
0.0
 70
     8
  0
VERTEX
  5
       1BF
100
AcDbEntity
  8
RED_LINE
 62
     1
100
AcDbVertex
100
AcDb3dPolylineVertex
  6
SRED
 10
415335.724
 20
381271.703
 30
314.694
 70
    32
  0
VERTEX
  5
       1C0
100
AcDbEntity
  8
RED_LINE
 62
     1
100
AcDbVertex
100
AcDb3dPolylineVertex
  6
SRED
 10
415325.677
 20
381281.869
 30
315.602
 70
    32
  0
SEQEND
  5
       1C1
100
AcDbEntity
  0
POLYLINE
  5
       1C2
100
AcDbEntity
  8
DARK_GREEN_LINE
 62
    96
100
AcDb3dPolyline
  6
SDGR
 66
     1
 10
0.0
 20
0.0
 70
     8
  0
VERTEX
  5
       1C3
100
AcDbEntity
  8
DARK_GREEN_LINE
 62
    96
100
AcDbVertex
100
AcDb3dPolylineVertex
  6
SDGR
 10
415290.275
 20
381312.579
 30
315.255
 70
    32
  0
VERTEX
  5
       1C4
100
AcDbEntity
  8
DARK_GREEN_LINE
 62
    96
100
AcDbVertex
100
AcDb3dPolylineVertex
  6
SDGR
 10
415282.947
 20
381320.127
 30
314.868
 70
    32
  0
VERTEX
  5
       1C5
100
AcDbEntity
  8
DARK_GREEN_LINE
 62
    96
100
AcDbVertex
100
AcDb3dPolylineVertex
  6
SDGR
 10
415279.968
 20
381322.483
 30
314.884
 70
    32
  0
VERTEX
  5
       1C6
100
AcDbEntity
  8
DARK_GREEN_LINE
 62
    96
100
AcDbVertex
100
AcDb3dPolylineVertex
  6
SDGR
 10
415279.039
 20
381326.165
 30
314.754
 70
    32
  0
VERTEX
  5
       1C7
100
AcDbEntity
  8
DARK_GREEN_LINE
 62
    96
100
AcDbVertex
100
AcDb3dPolylineVertex
  6
SDGR
 10
415273.66
 20
381330.109
 30
314.966
 70
    32
  0
VERTEX
  5
       1C8
100
AcDbEntity
  8
DARK_GREEN_LINE
 62
    96
100
AcDbVertex
100
AcDb3dPolylineVertex
  6
SDGR
 10
415267.38
 20
381332.269
 30
314.975
 70
    32
  0
VERTEX
  5
       1C9
100
AcDbEntity
  8
DARK_GREEN_LINE
 62
    96
100
AcDbVertex
100
AcDb3dPolylineVertex
  6
SDGR
 10
415260.552
 20
381331.285
 30
315.162
 70
    32
  0
VERTEX
  5
       1CA
100
AcDbEntity
  8
DARK_GREEN_LINE
 62
    96
100
AcDbVertex
100
AcDb3dPolylineVertex
  6
SDGR
 10
415254.331
 20
381329.915
 30
315.74
 70
    32
  0
VERTEX
  5
       1CB
100
AcDbEntity
  8
DARK_GREEN_LINE
 62
    96
100
AcDbVertex
100
AcDb3dPolylineVertex
  6
SDGR
 10
415241.3
 20
381327.307
 30
317.1
 70
    32
  0
VERTEX
  5
       1CC
100
AcDbEntity
  8
DARK_GREEN_LINE
 62
    96
100
AcDbVertex
100
AcDb3dPolylineVertex
  6
SDGR
 10
415233.992
 20
381326.294
 30
317.805
 70
    32
  0
VERTEX
  5
       1CD
100
AcDbEntity
  8
DARK_GREEN_LINE
 62
    96
100
AcDbVertex
100
AcDb3dPolylineVertex
  6
SDGR
 10
415222.534
 20
381323.509
 30
318.787
 70
    32
  0
VERTEX
  5
       1CE
100
AcDbEntity
  8
DARK_GREEN_LINE
 62
    96
100
AcDbVertex
100
AcDb3dPolylineVertex
  6
SDGR
 10
415215.915
 20
381332.925
 30
318.16
 70
    32
  0
VERTEX
  5
       1CF
100
AcDbEntity
  8
DARK_GREEN_LINE
 62
    96
100
AcDbVertex
100
AcDb3dPolylineVertex
  6
SDGR
 10
415211.129
 20
381339.757
 30
318.279
 70
    32
  0
VERTEX
  5
       1D0
100
AcDbEntity
  8
DARK_GREEN_LINE
 62
    96
100
AcDbVertex
100
AcDb3dPolylineVertex
  6
SDGR
 10
415208.585
 20
381343.923
 30
318.161
 70
    32
  0
VERTEX
  5
       1D1
100
AcDbEntity
  8
DARK_GREEN_LINE
 62
    96
100
AcDbVertex
100
AcDb3dPolylineVertex
  6
SDGR
 10
415189.732
 20
381346.556
 30
319.196
 70
    32
  0
VERTEX
  5
       1D2
100
AcDbEntity
  8
DARK_GREEN_LINE
 62
    96
100
AcDbVertex
100
AcDb3dPolylineVertex
  6
SDGR
 10
415181.354
 20
381349.92
 30
319.645
 70
    32
  0
SEQEND
  5
       1D3
100
AcDbEntity
  0
POLYLINE
  5
       1D4
100
AcDbEntity
  8
RED_LINE
 62
     1
100
AcDb3dPolyline
  6
SRED
 66
     1
 10
0.0
 20
0.0
 70
     8
  0
VERTEX
  5
       1D5
100
AcDbEntity
  8
RED_LINE
 62
     1
100
AcDbVertex
100
AcDb3dPolylineVertex
  6
SRED
 10
415175.717
 20
381356.414
 30
325.758
 70
    32
  0
VERTEX
  5
       1D6
100
AcDbEntity
  8
RED_LINE
 62
     1
100
AcDbVertex
100
AcDb3dPolylineVertex
  6
SRED
 10
415164.365
 20
381366.532
 30
326.274
 70
    32
  0
VERTEX
  5
       1D7
100
AcDbEntity
  8
RED_LINE
 62
     1
100
AcDbVertex
100
AcDb3dPolylineVertex
  6
SRED
 10
415160.782
 20
381375.807
 30
326.474
 70
    32
  0
SEQEND
  5
       1D8
100
AcDbEntity
  0
POLYLINE
  5
       1D9
100
AcDbEntity
  8
RED_LINE
 62
     1
100
AcDb3dPolyline
  6
SRED
 66
     1
 10
0.0
 20
0.0
 70
     8
  0
VERTEX
  5
       1DA
100
AcDbEntity
  8
RED_LINE
 62
     1
100
AcDbVertex
100
AcDb3dPolylineVertex
  6
SRED
 10
415125.879
 20
381393.684
 30
321.866
 70
    32
  0
VERTEX
  5
       1DB
100
AcDbEntity
  8
RED_LINE
 62
     1
100
AcDbVertex
100
AcDb3dPolylineVertex
  6
SRED
 10
415120.688
 20
381410.053
 30
322.595
 70
    32
  0
VERTEX
  5
       1DC
100
AcDbEntity
  8
RED_LINE
 62
     1
100
AcDbVertex
100
AcDb3dPolylineVertex
  6
SRED
 10
415114.291
 20
381425.111
 30
322.079
 70
    32
  0
VERTEX
  5
       1DD
100
AcDbEntity
  8
RED_LINE
 62
     1
100
AcDbVertex
100
AcDb3dPolylineVertex
  6
SRED
 10
415110.452
 20
381435.338
 30
322.606
 70
    32
  0
VERTEX
  5
       1DE
100
AcDbEntity
  8
RED_LINE
 62
     1
100
AcDbVertex
100
AcDb3dPolylineVertex
  6
SRED
 10
415106.895
 20
381443.785
 30
322.924
 70
    32
  0
VERTEX
  5
       1DF
100
AcDbEntity
  8
RED_LINE
 62
     1
100
AcDbVertex
100
AcDb3dPolylineVertex
  6
SRED
 10
415106.695
 20
381453.318
 30
322.301
 70
    32
  0
VERTEX
  5
       1E0
100
AcDbEntity
  8
RED_LINE
 62
     1
100
AcDbVertex
100
AcDb3dPolylineVertex
  6
SRED
 10
415110.266
 20
381474.522
 30
322.276
 70
    32
  0
VERTEX
  5
       1E1
100
AcDbEntity
  8
RED_LINE
 62
     1
100
AcDbVertex
100
AcDb3dPolylineVertex
  6
SRED
 10
415120.055
 20
381493.032
 30
321.674
 70
    32
  0
VERTEX
  5
       1E2
100
AcDbEntity
  8
RED_LINE
 62
     1
100
AcDbVertex
100
AcDb3dPolylineVertex
  6
SRED
 10
415133.706
 20
381501.976
 30
320.791
 70
    32
  0
VERTEX
  5
       1E3
100
AcDbEntity
  8
RED_LINE
 62
     1
100
AcDbVertex
100
AcDb3dPolylineVertex
  6
SRED
 10
415159.453
 20
381517.768
 30
319.363
 70
    32
  0
SEQEND
  5
       1E4
100
AcDbEntity
  0
POLYLINE
  5
       1E5
100
AcDbEntity
  8
DARK_GREEN_LINE
 62
    96
100
AcDb3dPolyline
  6
SDGR
 66
     1
 10
0.0
 20
0.0
 70
     8
  0
VERTEX
  5
       1E6
100
AcDbEntity
  8
DARK_GREEN_LINE
 62
    96
100
AcDbVertex
100
AcDb3dPolylineVertex
  6
SDGR
 10
415404.434
 20
381270.863
 30
323.868
 70
    32
  0
VERTEX
  5
       1E7
100
AcDbEntity
  8
DARK_GREEN_LINE
 62
    96
100
AcDbVertex
100
AcDb3dPolylineVertex
  6
SDGR
 10
415396.329
 20
381264.436
 30
324.755
 70
    32
  0
VERTEX
  5
       1E8
100
AcDbEntity
  8
DARK_GREEN_LINE
 62
    96
100
AcDbVertex
100
AcDb3dPolylineVertex
  6
SDGR
 10
415391.532
 20
381253.441
 30
324.809
 70
    32
  0
VERTEX
  5
       1E9
100
AcDbEntity
  8
DARK_GREEN_LINE
 62
    96
100
AcDbVertex
100
AcDb3dPolylineVertex
  6
SDGR
 10
415385.673
 20
381250.609
 30
325.139
 70
    32
  0
VERTEX
  5
       1EA
100
AcDbEntity
  8
DARK_GREEN_LINE
 62
    96
100
AcDbVertex
100
AcDb3dPolylineVertex
  6
SDGR
 10
415372.734
 20
381242.442
 30
325.476
 70
    32
  0
VERTEX
  5
       1EB
100
AcDbEntity
  8
DARK_GREEN_LINE
 62
    96
100
AcDbVertex
100
AcDb3dPolylineVertex
  6
SDGR
 10
415353.661
 20
381247.798
 30
324.68
 70
    32
  0
VERTEX
  5
       1EC
100
AcDbEntity
  8
DARK_GREEN_LINE
 62
    96
100
AcDbVertex
100
AcDb3dPolylineVertex
  6
SDGR
 10
415334.091
 20
381270.786
 30
322.976
 70
    32
  0
SEQEND
  5
       1ED
100
AcDbEntity
  0
POLYLINE
  5
       1EE
100
AcDbEntity
  8
RED_LINE
 62
     1
100
AcDb3dPolyline
  6
SRED
 66
     1
 10
0.0
 20
0.0
 70
     8
  0
VERTEX
  5
       1EF
100
AcDbEntity
  8
RED_LINE
 62
     1
100
AcDbVertex
100
AcDb3dPolylineVertex
  6
SRED
 10
415273.93
 20
381554.844
 30
302.381
 70
    32
  0
VERTEX
  5
       1F0
100
AcDbEntity
  8
RED_LINE
 62
     1
100
AcDbVertex
100
AcDb3dPolylineVertex
  6
SRED
 10
415259.082
 20
381543.569
 30
302.977
 70
    32
  0
VERTEX
  5
       1F1
100
AcDbEntity
  8
RED_LINE
 62
     1
100
AcDbVertex
100
AcDb3dPolylineVertex
  6
SRED
 10
415249.727
 20
381536.608
 30
303.12
 70
    32
  0
VERTEX
  5
       1F2
100
AcDbEntity
  8
RED_LINE
 62
     1
100
AcDbVertex
100
AcDb3dPolylineVertex
  6
SRED
 10
415246.675
 20
381534.54
 30
300.306
 70
    32
  0
VERTEX
  5
       1F3
100
AcDbEntity
  8
RED_LINE
 62
     1
100
AcDbVertex
100
AcDb3dPolylineVertex
  6
SRED
 10
415230.247
 20
381523.841
 30
301.383
 70
    32
  0
VERTEX
  5
       1F4
100
AcDbEntity
  8
RED_LINE
 62
     1
100
AcDbVertex
100
AcDb3dPolylineVertex
  6
SRED
 10
415198.719
 20
381504.743
 30
303.14
 70
    32
  0
VERTEX
  5
       1F5
100
AcDbEntity
  8
RED_LINE
 62
     1
100
AcDbVertex
100
AcDb3dPolylineVertex
  6
SRED
 10
415167.531
 20
381481.249
 30
305.333
 70
    32
  0
SEQEND
  5
       1F6
100
AcDbEntity
  0
POLYLINE
  5
       1F7
100
AcDbEntity
  8
RED_LINE
 62
     1
100
AcDb3dPolyline
  6
SRED
 66
     1
 10
0.0
 20
0.0
 70
     8
  0
VERTEX
  5
       1F8
100
AcDbEntity
  8
RED_LINE
 62
     1
100
AcDbVertex
100
AcDb3dPolylineVertex
  6
SRED
 10
415251.982
 20
381384.195
 30
307.594
 70
    32
  0
VERTEX
  5
       1F9
100
AcDbEntity
  8
RED_LINE
 62
     1
100
AcDbVertex
100
AcDb3dPolylineVertex
  6
SRED
 10
415222.576
 20
381396.123
 30
309.013
 70
    32
  0
VERTEX
  5
       1FA
100
AcDbEntity
  8
RED_LINE
 62
     1
100
AcDbVertex
100
AcDb3dPolylineVertex
  6
SRED
 10
415198.112
 20
381390.31
 30
310.131
 70
    32
  0
VERTEX
  5
       1FB
100
AcDbEntity
  8
RED_LINE
 62
     1
100
AcDbVertex
100
AcDb3dPolylineVertex
  6
SRED
 10
415189.679
 20
381406.296
 30
310.329
 70
    32
  0
VERTEX
  5
       1FC
100
AcDbEntity
  8
RED_LINE
 62
     1
100
AcDbVertex
100
AcDb3dPolylineVertex
  6
SRED
 10
415181.659
 20
381428.314
 30
310.464
 70
    32
  0
VERTEX
  5
       1FD
100
AcDbEntity
  8
RED_LINE
 62
     1
100
AcDbVertex
100
AcDb3dPolylineVertex
  6
SRED
 10
415172.939
 20
381445.339
 30
311.184
 70
    32
  0
SEQEND
  5
       1FE
100
AcDbEntity
  0
POLYLINE
  5
       1FF
100
AcDbEntity
  8
RED_LINE
 62
     1
100
AcDb3dPolyline
  6
SRED
 66
     1
 10
0.0
 20
0.0
 70
     8
  0
VERTEX
  5
       200
100
AcDbEntity
  8
RED_LINE
 62
     1
100
AcDbVertex
100
AcDb3dPolylineVertex
  6
SRED
 10
415334.091
 20
381270.786
 30
322.976
 70
    32
  0
VERTEX
  5
       201
100
AcDbEntity
  8
RED_LINE
 62
     1
100
AcDbVertex
100
AcDb3dPolylineVertex
  6
SRED
 10
415319.637
 20
381283.167
 30
324.898
 70
    32
  0
VERTEX
  5
       202
100
AcDbEntity
  8
RED_LINE
 62
     1
100
AcDbVertex
100
AcDb3dPolylineVertex
  6
SRED
 10
415306.15
 20
381295.476
 30
325.652
 70
    32
  0
VERTEX
  5
       203
100
AcDbEntity
  8
RED_LINE
 62
     1
100
AcDbVertex
100
AcDb3dPolylineVertex
  6
SRED
 10
415300.234
 20
381301.38
 30
326.154
 70
    32
  0
VERTEX
  5
       204
100
AcDbEntity
  8
RED_LINE
 62
     1
100
AcDbVertex
100
AcDb3dPolylineVertex
  6
SRED
 10
415291.749
 20
381309.408
 30
324.829
 70
    32
  0
VERTEX
  5
       205
100
AcDbEntity
  8
RED_LINE
 62
     1
100
AcDbVertex
100
AcDb3dPolylineVertex
  6
SRED
 10
415285.06
 20
381315.204
 30
325.987
 70
    32
  0
VERTEX
  5
       206
100
AcDbEntity
  8
RED_LINE
 62
     1
100
AcDbVertex
100
AcDb3dPolylineVertex
  6
SRED
 10
415277.77
 20
381322.68
 30
325.616
 70
    32
  0
VERTEX
  5
       207
100
AcDbEntity
  8
RED_LINE
 62
     1
100
AcDbVertex
100
AcDb3dPolylineVertex
  6
SRED
 10
415272.38
 20
381327.096
 30
326.405
 70
    32
  0
VERTEX
  5
       208
100
AcDbEntity
  8
RED_LINE
 62
     1
100
AcDbVertex
100
AcDb3dPolylineVertex
  6
SRED
 10
415269.261
 20
381328.349
 30
326.299
 70
    32
  0
VERTEX
  5
       209
100
AcDbEntity
  8
RED_LINE
 62
     1
100
AcDbVertex
100
AcDb3dPolylineVertex
  6
SRED
 10
415253.264
 20
381325.968
 30
326.778
 70
    32
  0
VERTEX
  5
       20A
100
AcDbEntity
  8
RED_LINE
 62
     1
100
AcDbVertex
100
AcDb3dPolylineVertex
  6
SRED
 10
415245.239
 20
381324.198
 30
326.213
 70
    32
  0
VERTEX
  5
       20B
100
AcDbEntity
  8
RED_LINE
 62
     1
100
AcDbVertex
100
AcDb3dPolylineVertex
  6
SRED
 10
415234.259
 20
381323.615
 30
325.31
 70
    32
  0
VERTEX
  5
       20C
100
AcDbEntity
  8
RED_LINE
 62
     1
100
AcDbVertex
100
AcDb3dPolylineVertex
  6
SRED
 10
415221.361
 20
381320.816
 30
326.682
 70
    32
  0
VERTEX
  5
       20D
100
AcDbEntity
  8
RED_LINE
 62
     1
100
AcDbVertex
100
AcDb3dPolylineVertex
  6
SRED
 10
415214.563
 20
381328.921
 30
326.595
 70
    32
  0
VERTEX
  5
       20E
100
AcDbEntity
  8
RED_LINE
 62
     1
100
AcDbVertex
100
AcDb3dPolylineVertex
  6
SRED
 10
415208.596
 20
381336.997
 30
326.739
 70
    32
  0
VERTEX
  5
       20F
100
AcDbEntity
  8
RED_LINE
 62
     1
100
AcDbVertex
100
AcDb3dPolylineVertex
  6
SRED
 10
415207.434
 20
381340.253
 30
325.56
 70
    32
  0
VERTEX
  5
       210
100
AcDbEntity
  8
RED_LINE
 62
     1
100
AcDbVertex
100
AcDb3dPolylineVertex
  6
SRED
 10
415188.519
 20
381345.114
 30
325.513
 70
    32
  0
SEQEND
  5
       211
100
AcDbEntity
  0
POLYLINE
  5
       212
100
AcDbEntity
  8
DARK_GREEN_LINE
 62
    96
100
AcDb3dPolyline
  6
SDGR
 66
     1
 10
0.0
 20
0.0
 70
     8
  0
VERTEX
  5
       213
100
AcDbEntity
  8
DARK_GREEN_LINE
 62
    96
100
AcDbVertex
100
AcDb3dPolylineVertex
  6
SDGR
 10
415514.313
 20
381280.67
 30
321.403
 70
    32
  0
VERTEX
  5
       214
100
AcDbEntity
  8
DARK_GREEN_LINE
 62
    96
100
AcDbVertex
100
AcDb3dPolylineVertex
  6
SDGR
 10
415516.638
 20
381271.379
 30
321.362
 70
    32
  0
VERTEX
  5
       215
100
AcDbEntity
  8
DARK_GREEN_LINE
 62
    96
100
AcDbVertex
100
AcDb3dPolylineVertex
  6
SDGR
 10
415517.102
 20
381269.669
 30
321.408
 70
    32
  0
VERTEX
  5
       216
100
AcDbEntity
  8
DARK_GREEN_LINE
 62
    96
100
AcDbVertex
100
AcDb3dPolylineVertex
  6
SDGR
 10
415516.615
 20
381266.935
 30
321.973
 70
    32
  0
VERTEX
  5
       217
100
AcDbEntity
  8
DARK_GREEN_LINE
 62
    96
100
AcDbVertex
100
AcDb3dPolylineVertex
  6
SDGR
 10
415509.924
 20
381262.949
 30
322.827
 70
    32
  0
VERTEX
  5
       218
100
AcDbEntity
  8
DARK_GREEN_LINE
 62
    96
100
AcDbVertex
100
AcDb3dPolylineVertex
  6
SDGR
 10
415507.074
 20
381258.839
 30
323.533
 70
    32
  0
VERTEX
  5
       219
100
AcDbEntity
  8
DARK_GREEN_LINE
 62
    96
100
AcDbVertex
100
AcDb3dPolylineVertex
  6
SDGR
 10
415503.129
 20
381256.407
 30
324.328
 70
    32
  0
VERTEX
  5
       21A
100
AcDbEntity
  8
DARK_GREEN_LINE
 62
    96
100
AcDbVertex
100
AcDb3dPolylineVertex
  6
SDGR
 10
415496.718
 20
381253.137
 30
324.693
 70
    32
  0
VERTEX
  5
       21B
100
AcDbEntity
  8
DARK_GREEN_LINE
 62
    96
100
AcDbVertex
100
AcDb3dPolylineVertex
  6
SDGR
 10
415492.526
 20
381250.442
 30
325.3
 70
    32
  0
VERTEX
  5
       21C
100
AcDbEntity
  8
DARK_GREEN_LINE
 62
    96
100
AcDbVertex
100
AcDb3dPolylineVertex
  6
SDGR
 10
415487.846
 20
381248.676
 30
325.629
 70
    32
  0
VERTEX
  5
       21D
100
AcDbEntity
  8
DARK_GREEN_LINE
 62
    96
100
AcDbVertex
100
AcDb3dPolylineVertex
  6
SDGR
 10
415480.964
 20
381247.642
 30
325.236
 70
    32
  0
SEQEND
  5
       21E
100
AcDbEntity
  0
POLYLINE
  5
       21F
100
AcDbEntity
  8
RED_LINE
 62
     1
100
AcDb3dPolyline
  6
SRED
 66
     1
 10
0.0
 20
0.0
 70
     8
  0
VERTEX
  5
       220
100
AcDbEntity
  8
RED_LINE
 62
     1
100
AcDbVertex
100
AcDb3dPolylineVertex
  6
SRED
 10
415483.045
 20
381355.676
 30
283.29
 70
    32
  0
VERTEX
  5
       221
100
AcDbEntity
  8
RED_LINE
 62
     1
100
AcDbVertex
100
AcDb3dPolylineVertex
  6
SRED
 10
415465.549
 20
381363.743
 30
283.309
 70
    32
  0
VERTEX
  5
       222
100
AcDbEntity
  8
RED_LINE
 62
     1
100
AcDbVertex
100
AcDb3dPolylineVertex
  6
SRED
 10
415447.242
 20
381361.323
 30
285.269
 70
    32
  0
VERTEX
  5
       223
100
AcDbEntity
  8
RED_LINE
 62
     1
100
AcDbVertex
100
AcDb3dPolylineVertex
  6
SRED
 10
415433.976
 20
381359.717
 30
285.672
 70
    32
  0
VERTEX
  5
       224
100
AcDbEntity
  8
RED_LINE
 62
     1
100
AcDbVertex
100
AcDb3dPolylineVertex
  6
SRED
 10
415432.334
 20
381359.659
 30
285.701
 70
    32
  0
VERTEX
  5
       225
100
AcDbEntity
  8
RED_LINE
 62
     1
100
AcDbVertex
100
AcDb3dPolylineVertex
  6
SRED
 10
415422.584
 20
381359.313
 30
285.87
 70
    32
  0
VERTEX
  5
       226
100
AcDbEntity
  8
RED_LINE
 62
     1
100
AcDbVertex
100
AcDb3dPolylineVertex
  6
SRED
 10
415403.106
 20
381357.014
 30
286.186
 70
    32
  0
VERTEX
  5
       227
100
AcDbEntity
  8
RED_LINE
 62
     1
100
AcDbVertex
100
AcDb3dPolylineVertex
  6
SRED
 10
415387.694
 20
381358.388
 30
287.512
 70
    32
  0
VERTEX
  5
       228
100
AcDbEntity
  8
RED_LINE
 62
     1
100
AcDbVertex
100
AcDb3dPolylineVertex
  6
SRED
 10
415364.958
 20
381351.368
 30
288.642
 70
    32
  0
VERTEX
  5
       229
100
AcDbEntity
  8
RED_LINE
 62
     1
100
AcDbVertex
100
AcDb3dPolylineVertex
  6
SRED
 10
415354.831
 20
381344.971
 30
288.73
 70
    32
  0
VERTEX
  5
       22A
100
AcDbEntity
  8
RED_LINE
 62
     1
100
AcDbVertex
100
AcDb3dPolylineVertex
  6
SRED
 10
415334.097
 20
381348.192
 30
289.556
 70
    32
  0
VERTEX
  5
       22B
100
AcDbEntity
  8
RED_LINE
 62
     1
100
AcDbVertex
100
AcDb3dPolylineVertex
  6
SRED
 10
415315.676
 20
381357.9
 30
290.115
 70
    32
  0
VERTEX
  5
       22C
100
AcDbEntity
  8
RED_LINE
 62
     1
100
AcDbVertex
100
AcDb3dPolylineVertex
  6
SRED
 10
415302.295
 20
381370.369
 30
289.931
 70
    32
  0
VERTEX
  5
       22D
100
AcDbEntity
  8
RED_LINE
 62
     1
100
AcDbVertex
100
AcDb3dPolylineVertex
  6
SRED
 10
415287.11
 20
381383.103
 30
289.606
 70
    32
  0
VERTEX
  5
       22E
100
AcDbEntity
  8
RED_LINE
 62
     1
100
AcDbVertex
100
AcDb3dPolylineVertex
  6
SRED
 10
415279.376
 20
381387.572
 30
290.812
 70
    32
  0
VERTEX
  5
       22F
100
AcDbEntity
  8
RED_LINE
 62
     1
100
AcDbVertex
100
AcDb3dPolylineVertex
  6
SRED
 10
415272.825
 20
381398.247
 30
290.26
 70
    32
  0
VERTEX
  5
       230
100
AcDbEntity
  8
RED_LINE
 62
     1
100
AcDbVertex
100
AcDb3dPolylineVertex
  6
SRED
 10
415263.333
 20
381410.641
 30
290.957
 70
    32
  0
VERTEX
  5
       231
100
AcDbEntity
  8
RED_LINE
 62
     1
100
AcDbVertex
100
AcDb3dPolylineVertex
  6
SRED
 10
415252.659
 20
381418.739
 30
291.44
 70
    32
  0
VERTEX
  5
       232
100
AcDbEntity
  8
RED_LINE
 62
     1
100
AcDbVertex
100
AcDb3dPolylineVertex
  6
SRED
 10
415244.887
 20
381428.199
 30
291.556
 70
    32
  0
VERTEX
  5
       233
100
AcDbEntity
  8
RED_LINE
 62
     1
100
AcDbVertex
100
AcDb3dPolylineVertex
  6
SRED
 10
415228.628
 20
381428.595
 30
293.875
 70
    32
  0
VERTEX
  5
       234
100
AcDbEntity
  8
RED_LINE
 62
     1
100
AcDbVertex
100
AcDb3dPolylineVertex
  6
SRED
 10
415221.535
 20
381446.095
 30
291.565
 70
    32
  0
SEQEND
  5
       235
100
AcDbEntity
  0
POLYLINE
  5
       236
100
AcDbEntity
  8
DARK_GREEN_LINE
 62
    96
100
AcDb3dPolyline
  6
SDGR
 66
     1
 10
0.0
 20
0.0
 70
     8
  0
VERTEX
  5
       237
100
AcDbEntity
  8
DARK_GREEN_LINE
 62
    96
100
AcDbVertex
100
AcDb3dPolylineVertex
  6
SDGR
 10
415027.254
 20
381448.552
 30
345.129
 70
    32
  0
VERTEX
  5
       238
100
AcDbEntity
  8
DARK_GREEN_LINE
 62
    96
100
AcDbVertex
100
AcDb3dPolylineVertex
  6
SDGR
 10
415035.701
 20
381454.58
 30
344.444
 70
    32
  0
SEQEND
  5
       239
100
AcDbEntity
  0
POLYLINE
  5
       23A
100
AcDbEntity
  8
ORANGE_LINE
 62
    30
100
AcDb3dPolyline
  6
SORA
 66
     1
 10
0.0
 20
0.0
 70
     8
  0
VERTEX
  5
       23B
100
AcDbEntity
  8
ORANGE_LINE
 62
    30
100
AcDbVertex
100
AcDb3dPolylineVertex
  6
SORA
 10
415716.52
 20
381492.875
 30
240.693
 70
    32
  0
VERTEX
  5
       23C
100
AcDbEntity
  8
ORANGE_LINE
 62
    30
100
AcDbVertex
100
AcDb3dPolylineVertex
  6
SORA
 10
415713.365
 20
381459.803
 30
239.473
 70
    32
  0
VERTEX
  5
       23D
100
AcDbEntity
  8
ORANGE_LINE
 62
    30
100
AcDbVertex
100
AcDb3dPolylineVertex
  6
SORA
 10
415709.406
 20
381441.254
 30
238.714
 70
    32
  0
VERTEX
  5
       23E
100
AcDbEntity
  8
ORANGE_LINE
 62
    30
100
AcDbVertex
100
AcDb3dPolylineVertex
  6
SORA
 10
415704.252
 20
381428.859
 30
238.41
 70
    32
  0
VERTEX
  5
       23F
100
AcDbEntity
  8
ORANGE_LINE
 62
    30
100
AcDbVertex
100
AcDb3dPolylineVertex
  6
SORA
 10
415702.672
 20
381412.299
 30
238.498
 70
    32
  0
VERTEX
  5
       240
100
AcDbEntity
  8
ORANGE_LINE
 62
    30
100
AcDbVertex
100
AcDb3dPolylineVertex
  6
SORA
 10
415701.319
 20
381407.407
 30
238.446
 70
    32
  0
VERTEX
  5
       241
100
AcDbEntity
  8
ORANGE_LINE
 62
    30
100
AcDbVertex
100
AcDb3dPolylineVertex
  6
SORA
 10
415688.176
 20
381403.894
 30
238.722
 70
    32
  0
VERTEX
  5
       242
100
AcDbEntity
  8
ORANGE_LINE
 62
    30
100
AcDbVertex
100
AcDb3dPolylineVertex
  6
SORA
 10
415678.867
 20
381398.684
 30
239.197
 70
    32
  0
VERTEX
  5
       243
100
AcDbEntity
  8
ORANGE_LINE
 62
    30
100
AcDbVertex
100
AcDb3dPolylineVertex
  6
SORA
 10
415658.009
 20
381396.481
 30
239.575
 70
    32
  0
VERTEX
  5
       244
100
AcDbEntity
  8
ORANGE_LINE
 62
    30
100
AcDbVertex
100
AcDb3dPolylineVertex
  6
SORA
 10
415636.365
 20
381392.397
 30
240.323
 70
    32
  0
VERTEX
  5
       245
100
AcDbEntity
  8
ORANGE_LINE
 62
    30
100
AcDbVertex
100
AcDb3dPolylineVertex
  6
SORA
 10
415636.365
 20
381392.399
 30
240.324
 70
    32
  0
VERTEX
  5
       246
100
AcDbEntity
  8
ORANGE_LINE
 62
    30
100
AcDbVertex
100
AcDb3dPolylineVertex
  6
SORA
 10
415617.332
 20
381393.415
 30
240.992
 70
    32
  0
VERTEX
  5
       247
100
AcDbEntity
  8
ORANGE_LINE
 62
    30
100
AcDbVertex
100
AcDb3dPolylineVertex
  6
SORA
 10
415610.016
 20
381402.443
 30
241.177
 70
    32
  0
VERTEX
  5
       248
100
AcDbEntity
  8
ORANGE_LINE
 62
    30
100
AcDbVertex
100
AcDb3dPolylineVertex
  6
SORA
 10
415602.032
 20
381407.963
 30
241.796
 70
    32
  0
VERTEX
  5
       249
100
AcDbEntity
  8
ORANGE_LINE
 62
    30
100
AcDbVertex
100
AcDb3dPolylineVertex
  6
SORA
 10
415587.525
 20
381412.88
 30
242.946
 70
    32
  0
VERTEX
  5
       24A
100
AcDbEntity
  8
ORANGE_LINE
 62
    30
100
AcDbVertex
100
AcDb3dPolylineVertex
  6
SORA
 10
415571.152
 20
381417.994
 30
243.862
 70
    32
  0
VERTEX
  5
       24B
100
AcDbEntity
  8
ORANGE_LINE
 62
    30
100
AcDbVertex
100
AcDb3dPolylineVertex
  6
SORA
 10
415553.246
 20
381421.689
 30
244.911
 70
    32
  0
VERTEX
  5
       24C
100
AcDbEntity
  8
ORANGE_LINE
 62
    30
100
AcDbVertex
100
AcDb3dPolylineVertex
  6
SORA
 10
415538.418
 20
381425.907
 30
244.972
 70
    32
  0
VERTEX
  5
       24D
100
AcDbEntity
  8
ORANGE_LINE
 62
    30
100
AcDbVertex
100
AcDb3dPolylineVertex
  6
SORA
 10
415528.15
 20
381430.234
 30
245.392
 70
    32
  0
VERTEX
  5
       24E
100
AcDbEntity
  8
ORANGE_LINE
 62
    30
100
AcDbVertex
100
AcDb3dPolylineVertex
  6
SORA
 10
415510.611
 20
381432.599
 30
247.851
 70
    32
  0
VERTEX
  5
       24F
100
AcDbEntity
  8
ORANGE_LINE
 62
    30
100
AcDbVertex
100
AcDb3dPolylineVertex
  6
SORA
 10
415491.909
 20
381440.136
 30
248.905
 70
    32
  0
VERTEX
  5
       250
100
AcDbEntity
  8
ORANGE_LINE
 62
    30
100
AcDbVertex
100
AcDb3dPolylineVertex
  6
SORA
 10
415484.392
 20
381442.448
 30
249.254
 70
    32
  0
VERTEX
  5
       251
100
AcDbEntity
  8
ORANGE_LINE
 62
    30
100
AcDbVertex
100
AcDb3dPolylineVertex
  6
SORA
 10
415467.09
 20
381440.74
 30
251.14
 70
    32
  0
VERTEX
  5
       252
100
AcDbEntity
  8
ORANGE_LINE
 62
    30
100
AcDbVertex
100
AcDb3dPolylineVertex
  6
SORA
 10
415446.849
 20
381436.647
 30
251.888
 70
    32
  0
VERTEX
  5
       253
100
AcDbEntity
  8
ORANGE_LINE
 62
    30
100
AcDbVertex
100
AcDb3dPolylineVertex
  6
SORA
 10
415439.24
 20
381448.145
 30
250.225
 70
    32
  0
VERTEX
  5
       254
100
AcDbEntity
  8
ORANGE_LINE
 62
    30
100
AcDbVertex
100
AcDb3dPolylineVertex
  6
SORA
 10
415420.946
 20
381498.233
 30
248.419
 70
    32
  0
VERTEX
  5
       255
100
AcDbEntity
  8
ORANGE_LINE
 62
    30
100
AcDbVertex
100
AcDb3dPolylineVertex
  6
SORA
 10
415430.067
 20
381502.965
 30
251.82
 70
    32
  0
VERTEX
  5
       256
100
AcDbEntity
  8
ORANGE_LINE
 62
    30
100
AcDbVertex
100
AcDb3dPolylineVertex
  6
SORA
 10
415448.002
 20
381513.593
 30
250.975
 70
    32
  0
VERTEX
  5
       257
100
AcDbEntity
  8
ORANGE_LINE
 62
    30
100
AcDbVertex
100
AcDb3dPolylineVertex
  6
SORA
 10
415461.871
 20
381522.847
 30
250.357
 70
    32
  0
VERTEX
  5
       258
100
AcDbEntity
  8
ORANGE_LINE
 62
    30
100
AcDbVertex
100
AcDb3dPolylineVertex
  6
SORA
 10
415468.359
 20
381527.314
 30
248.716
 70
    32
  0
SEQEND
  5
       259
100
AcDbEntity
  0
POLYLINE
  5
       25A
100
AcDbEntity
  8
PINK_(ROSE)_LINE
 62
     6
100
AcDb3dPolyline
  6
SMAG
 66
     1
 10
0.0
 20
0.0
 70
     8
  0
VERTEX
  5
       25B
100
AcDbEntity
  8
PINK_(ROSE)_LINE
 62
     6
100
AcDbVertex
100
AcDb3dPolylineVertex
  6
SMAG
 10
415546.237
 20
381527.115
 30
230.406
 70
    32
  0
VERTEX
  5
       25C
100
AcDbEntity
  8
PINK_(ROSE)_LINE
 62
     6
100
AcDbVertex
100
AcDb3dPolylineVertex
  6
SMAG
 10
415548.174
 20
381528.216
 30
228.764
 70
    32
  0
VERTEX
  5
       25D
100
AcDbEntity
  8
PINK_(ROSE)_LINE
 62
     6
100
AcDbVertex
100
AcDb3dPolylineVertex
  6
SMAG
 10
415549.636
 20
381532.062
 30
227.31
 70
    32
  0
VERTEX
  5
       25E
100
AcDbEntity
  8
PINK_(ROSE)_LINE
 62
     6
100
AcDbVertex
100
AcDb3dPolylineVertex
  6
SMAG
 10
415552.474
 20
381532.955
 30
227.297
 70
    32
  0
VERTEX
  5
       25F
100
AcDbEntity
  8
PINK_(ROSE)_LINE
 62
     6
100
AcDbVertex
100
AcDb3dPolylineVertex
  6
SMAG
 10
415551.741
 20
381537.962
 30
229.492
 70
    32
  0
SEQEND
  5
       260
100
AcDbEntity
  0
POLYLINE
  5
       261
100
AcDbEntity
  8
ORANGE_LINE
 62
    30
100
AcDb3dPolyline
  6
SORA
 66
     1
 10
0.0
 20
0.0
 70
     8
  0
VERTEX
  5
       262
100
AcDbEntity
  8
ORANGE_LINE
 62
    30
100
AcDbVertex
100
AcDb3dPolylineVertex
  6
SORA
 10
415606.668
 20
381390.834
 30
252.428
 70
    32
  0
VERTEX
  5
       263
100
AcDbEntity
  8
ORANGE_LINE
 62
    30
100
AcDbVertex
100
AcDb3dPolylineVertex
  6
SORA
 10
415598.656
 20
381397.52
 30
251.512
 70
    32
  0
VERTEX
  5
       264
100
AcDbEntity
  8
ORANGE_LINE
 62
    30
100
AcDbVertex
100
AcDb3dPolylineVertex
  6
SORA
 10
415591.34
 20
381398.308
 30
252.229
 70
    32
  0
VERTEX
  5
       265
100
AcDbEntity
  8
ORANGE_LINE
 62
    30
100
AcDbVertex
100
AcDb3dPolylineVertex
  6
SORA
 10
415582.143
 20
381399.103
 30
252.947
 70
    32
  0
VERTEX
  5
       266
100
AcDbEntity
  8
ORANGE_LINE
 62
    30
100
AcDbVertex
100
AcDb3dPolylineVertex
  6
SORA
 10
415570.168
 20
381398.247
 30
253.396
 70
    32
  0
VERTEX
  5
       267
100
AcDbEntity
  8
ORANGE_LINE
 62
    30
100
AcDbVertex
100
AcDb3dPolylineVertex
  6
SORA
 10
415557.453
 20
381401.995
 30
253.722
 70
    32
  0
VERTEX
  5
       268
100
AcDbEntity
  8
ORANGE_LINE
 62
    30
100
AcDbVertex
100
AcDb3dPolylineVertex
  6
SORA
 10
415540.414
 20
381405.6
 30
255.092
 70
    32
  0
VERTEX
  5
       269
100
AcDbEntity
  8
ORANGE_LINE
 62
    30
100
AcDbVertex
100
AcDb3dPolylineVertex
  6
SORA
 10
415520.726
 20
381412.124
 30
255.752
 70
    32
  0
VERTEX
  5
       26A
100
AcDbEntity
  8
ORANGE_LINE
 62
    30
100
AcDbVertex
100
AcDb3dPolylineVertex
  6
SORA
 10
415501.596
 20
381414.532
 30
257.452
 70
    32
  0
VERTEX
  5
       26B
100
AcDbEntity
  8
ORANGE_LINE
 62
    30
100
AcDbVertex
100
AcDb3dPolylineVertex
  6
SORA
 10
415490.576
 20
381417.38
 30
257.878
 70
    32
  0
VERTEX
  5
       26C
100
AcDbEntity
  8
ORANGE_LINE
 62
    30
100
AcDbVertex
100
AcDb3dPolylineVertex
  6
SORA
 10
415441.026
 20
381404.996
 30
259.708
 70
    32
  0
VERTEX
  5
       26D
100
AcDbEntity
  8
ORANGE_LINE
 62
    30
100
AcDbVertex
100
AcDb3dPolylineVertex
  6
SORA
 10
415422.841
 20
381399.846
 30
260.221
 70
    32
  0
VERTEX
  5
       26E
100
AcDbEntity
  8
ORANGE_LINE
 62
    30
100
AcDbVertex
100
AcDb3dPolylineVertex
  6
SORA
 10
415415.779
 20
381399.521
 30
260.468
 70
    32
  0
VERTEX
  5
       26F
100
AcDbEntity
  8
ORANGE_LINE
 62
    30
100
AcDbVertex
100
AcDb3dPolylineVertex
  6
SORA
 10
415409.707
 20
381399.242
 30
260.68
 70
    32
  0
VERTEX
  5
       270
100
AcDbEntity
  8
ORANGE_LINE
 62
    30
100
AcDbVertex
100
AcDb3dPolylineVertex
  6
SORA
 10
415397.137
 20
381398.901
 30
261.182
 70
    32
  0
VERTEX
  5
       271
100
AcDbEntity
  8
ORANGE_LINE
 62
    30
100
AcDbVertex
100
AcDb3dPolylineVertex
  6
SORA
 10
415382.724
 20
381394.75
 30
262.069
 70
    32
  0
VERTEX
  5
       272
100
AcDbEntity
  8
ORANGE_LINE
 62
    30
100
AcDbVertex
100
AcDb3dPolylineVertex
  6
SORA
 10
415370.727
 20
381392.225
 30
262.857
 70
    32
  0
VERTEX
  5
       273
100
AcDbEntity
  8
ORANGE_LINE
 62
    30
100
AcDbVertex
100
AcDb3dPolylineVertex
  6
SORA
 10
415364.003
 20
381390.772
 30
263.493
 70
    32
  0
VERTEX
  5
       274
100
AcDbEntity
  8
ORANGE_LINE
 62
    30
100
AcDbVertex
100
AcDb3dPolylineVertex
  6
SORA
 10
415355.664
 20
381406.612
 30
263.027
 70
    32
  0
VERTEX
  5
       275
100
AcDbEntity
  8
ORANGE_LINE
 62
    30
100
AcDbVertex
100
AcDb3dPolylineVertex
  6
SORA
 10
415348.461
 20
381420.134
 30
263.38
 70
    32
  0
VERTEX
  5
       276
100
AcDbEntity
  8
ORANGE_LINE
 62
    30
100
AcDbVertex
100
AcDb3dPolylineVertex
  6
SORA
 10
415340.946
 20
381433.46
 30
263.717
 70
    32
  0
SEQEND
  5
       277
100
AcDbEntity
  0
POLYLINE
  5
       278
100
AcDbEntity
  8
RED_LINE
 62
     1
100
AcDb3dPolyline
  6
SRED
 66
     1
 10
0.0
 20
0.0
 70
     8
  0
VERTEX
  5
       279
100
AcDbEntity
  8
RED_LINE
 62
     1
100
AcDbVertex
100
AcDb3dPolylineVertex
  6
SRED
 10
415436.15
 20
381456.675
 30
237.972
 70
    32
  0
VERTEX
  5
       27A
100
AcDbEntity
  8
RED_LINE
 62
     1
100
AcDbVertex
100
AcDb3dPolylineVertex
  6
SRED
 10
415436.634
 20
381457.847
 30
236.126
 70
    32
  0
VERTEX
  5
       27B
100
AcDbEntity
  8
RED_LINE
 62
     1
100
AcDbVertex
100
AcDb3dPolylineVertex
  6
SRED
 10
415436.681
 20
381458.072
 30
234.865
 70
    32
  0
SEQEND
  5
       27C
100
AcDbEntity
  0
POLYLINE
  5
       27D
100
AcDbEntity
  8
DARK_GREEN_LINE
 62
    96
100
AcDb3dPolyline
  6
SDGR
 66
     1
 10
0.0
 20
0.0
 70
     8
  0
VERTEX
  5
       27E
100
AcDbEntity
  8
DARK_GREEN_LINE
 62
    96
100
AcDbVertex
100
AcDb3dPolylineVertex
  6
SDGR
 10
415165.056
 20
381463.079
 30
306.739
 70
    32
  0
VERTEX
  5
       27F
100
AcDbEntity
  8
DARK_GREEN_LINE
 62
    96
100
AcDbVertex
100
AcDb3dPolylineVertex
  6
SDGR
 10
415172.852
 20
381448.652
 30
306.303
 70
    32
  0
VERTEX
  5
       280
100
AcDbEntity
  8
DARK_GREEN_LINE
 62
    96
100
AcDbVertex
100
AcDb3dPolylineVertex
  6
SDGR
 10
415179.695
 20
381434.161
 30
306.183
 70
    32
  0
VERTEX
  5
       281
100
AcDbEntity
  8
DARK_GREEN_LINE
 62
    96
100
AcDbVertex
100
AcDb3dPolylineVertex
  6
SDGR
 10
415186.988
 20
381417.712
 30
306.684
 70
    32
  0
VERTEX
  5
       282
100
AcDbEntity
  8
DARK_GREEN_LINE
 62
    96
100
AcDbVertex
100
AcDb3dPolylineVertex
  6
SDGR
 10
415193.416
 20
381400.227
 30
306.387
 70
    32
  0
VERTEX
  5
       283
100
AcDbEntity
  8
DARK_GREEN_LINE
 62
    96
100
AcDbVertex
100
AcDb3dPolylineVertex
  6
SDGR
 10
415198.156
 20
381391.37
 30
306.039
 70
    32
  0
VERTEX
  5
       284
100
AcDbEntity
  8
DARK_GREEN_LINE
 62
    96
100
AcDbVertex
100
AcDb3dPolylineVertex
  6
SDGR
 10
415208.66
 20
381394.507
 30
305.336
 70
    32
  0
VERTEX
  5
       285
100
AcDbEntity
  8
DARK_GREEN_LINE
 62
    96
100
AcDbVertex
100
AcDb3dPolylineVertex
  6
SDGR
 10
415221.369
 20
381397.472
 30
305.219
 70
    32
  0
VERTEX
  5
       286
100
AcDbEntity
  8
DARK_GREEN_LINE
 62
    96
100
AcDbVertex
100
AcDb3dPolylineVertex
  6
SDGR
 10
415233.481
 20
381398.134
 30
304.049
 70
    32
  0
VERTEX
  5
       287
100
AcDbEntity
  8
DARK_GREEN_LINE
 62
    96
100
AcDbVertex
100
AcDb3dPolylineVertex
  6
SDGR
 10
415242.286
 20
381394.042
 30
304.308
 70
    32
  0
VERTEX
  5
       288
100
AcDbEntity
  8
DARK_GREEN_LINE
 62
    96
100
AcDbVertex
100
AcDb3dPolylineVertex
  6
SDGR
 10
415253.152
 20
381384.975
 30
304.03
 70
    32
  0
VERTEX
  5
       289
100
AcDbEntity
  8
DARK_GREEN_LINE
 62
    96
100
AcDbVertex
100
AcDb3dPolylineVertex
  6
SDGR
 10
415274.484
 20
381360.288
 30
303.737
 70
    32
  0
VERTEX
  5
       28A
100
AcDbEntity
  8
DARK_GREEN_LINE
 62
    96
100
AcDbVertex
100
AcDb3dPolylineVertex
  6
SDGR
 10
415293.569
 20
381339.595
 30
303.929
 70
    32
  0
VERTEX
  5
       28B
100
AcDbEntity
  8
DARK_GREEN_LINE
 62
    96
100
AcDbVertex
100
AcDb3dPolylineVertex
  6
SDGR
 10
415314.898
 20
381314.508
 30
309.611
 70
    32
  0
VERTEX
  5
       28C
100
AcDbEntity
  8
DARK_GREEN_LINE
 62
    96
100
AcDbVertex
100
AcDb3dPolylineVertex
  6
SDGR
 10
415321.276
 20
381307.71
 30
309.611
 70
    32
  0
VERTEX
  5
       28D
100
AcDbEntity
  8
DARK_GREEN_LINE
 62
    96
100
AcDbVertex
100
AcDb3dPolylineVertex
  6
SDGR
 10
415335.875
 20
381301.677
 30
309.023
 70
    32
  0
VERTEX
  5
       28E
100
AcDbEntity
  8
DARK_GREEN_LINE
 62
    96
100
AcDbVertex
100
AcDb3dPolylineVertex
  6
SDGR
 10
415350.43
 20
381304.149
 30
306.996
 70
    32
  0
VERTEX
  5
       28F
100
AcDbEntity
  8
DARK_GREEN_LINE
 62
    96
100
AcDbVertex
100
AcDb3dPolylineVertex
  6
SDGR
 10
415370.646
 20
381308.877
 30
304.589
 70
    32
  0
SEQEND
  5
       290
100
AcDbEntity
  0
POLYLINE
  5
       291
100
AcDbEntity
  8
BLUE_LINE
 62
     5
100
AcDb3dPolyline
  6
SBLU
 66
     1
 10
0.0
 20
0.0
 70
     8
  0
VERTEX
  5
       292
100
AcDbEntity
  8
BLUE_LINE
 62
     5
100
AcDbVertex
100
AcDb3dPolylineVertex
  6
SBLU
 10
415413.714
 20
381402.92
 30
254.88
 70
    32
  0
VERTEX
  5
       293
100
AcDbEntity
  8
BLUE_LINE
 62
     5
100
AcDbVertex
100
AcDb3dPolylineVertex
  6
SBLU
 10
415415.77
 20
381399.563
 30
265.197
 70
    32
  0
VERTEX
  5
       294
100
AcDbEntity
  8
BLUE_LINE
 62
     5
100
AcDbVertex
100
AcDb3dPolylineVertex
  6
SBLU
 10
415415.779
 20
381399.521
 30
260.468
 70
    32
  0
VERTEX
  5
       295
100
AcDbEntity
  8
BLUE_LINE
 62
     5
100
AcDbVertex
100
AcDb3dPolylineVertex
  6
SBLU
 10
415416.619
 20
381395.822
 30
270.377
 70
    32
  0
VERTEX
  5
       296
100
AcDbEntity
  8
BLUE_LINE
 62
     5
100
AcDbVertex
100
AcDb3dPolylineVertex
  6
SBLU
 10
415430.651
 20
381362.1
 30
276.246
 70
    32
  0
VERTEX
  5
       297
100
AcDbEntity
  8
BLUE_LINE
 62
     5
100
AcDbVertex
100
AcDb3dPolylineVertex
  6
SBLU
 10
415432.334
 20
381359.659
 30
285.701
 70
    32
  0
VERTEX
  5
       298
100
AcDbEntity
  8
BLUE_LINE
 62
     5
100
AcDbVertex
100
AcDb3dPolylineVertex
  6
SBLU
 10
415432.469
 20
381359.463
 30
285.433
 70
    32
  0
VERTEX
  5
       299
100
AcDbEntity
  8
BLUE_LINE
 62
     5
100
AcDbVertex
100
AcDb3dPolylineVertex
  6
SBLU
 10
415433.781
 20
381357.658
 30
293.068
 70
    32
  0
VERTEX
  5
       29A
100
AcDbEntity
  8
BLUE_LINE
 62
     5
100
AcDbVertex
100
AcDb3dPolylineVertex
  6
SBLU
 10
415447.442
 20
381326.21
 30
301.896
 70
    32
  0
VERTEX
  5
       29B
100
AcDbEntity
  8
BLUE_LINE
 62
     5
100
AcDbVertex
100
AcDb3dPolylineVertex
  6
SBLU
 10
415449.623
 20
381323.189
 30
306.522
 70
    32
  0
VERTEX
  5
       29C
100
AcDbEntity
  8
BLUE_LINE
 62
     5
100
AcDbVertex
100
AcDb3dPolylineVertex
  6
SBLU
 10
415461.557
 20
381299.19
 30
316.095
 70
    32
  0
VERTEX
  5
       29D
100
AcDbEntity
  8
BLUE_LINE
 62
     5
100
AcDbVertex
100
AcDb3dPolylineVertex
  6
SBLU
 10
415462.948
 20
381296.68
 30
320.602
 70
    32
  0
SEQEND
  5
       29E
100
AcDbEntity
  0
POLYLINE
  5
       29F
100
AcDbEntity
  8
RED_LINE
 62
     1
100
AcDb3dPolyline
  6
SRED
 66
     1
 10
0.0
 20
0.0
 70
     8
  0
VERTEX
  5
       2A0
100
AcDbEntity
  8
RED_LINE
 62
     1
100
AcDbVertex
100
AcDb3dPolylineVertex
  6
SRED
 10
415017.201
 20
381442.94
 30
353.33
 70
    32
  0
VERTEX
  5
       2A1
100
AcDbEntity
  8
RED_LINE
 62
     1
100
AcDbVertex
100
AcDb3dPolylineVertex
  6
SRED
 10
415002.632
 20
381433.414
 30
353.4
 70
    32
  0
VERTEX
  5
       2A2
100
AcDbEntity
  8
RED_LINE
 62
     1
100
AcDbVertex
100
AcDb3dPolylineVertex
  6
SRED
 10
415012.145
 20
381420.122
 30
353.186
 70
    32
  0
VERTEX
  5
       2A3
100
AcDbEntity
  8
RED_LINE
 62
     1
100
AcDbVertex
100
AcDb3dPolylineVertex
  6
SRED
 10
415025.044
 20
381395.334
 30
351.835
 70
    32
  0
VERTEX
  5
       2A4
100
AcDbEntity
  8
RED_LINE
 62
     1
100
AcDbVertex
100
AcDb3dPolylineVertex
  6
SRED
 10
415038.811
 20
381372.057
 30
349.524
 70
    32
  0
VERTEX
  5
       2A5
100
AcDbEntity
  8
RED_LINE
 62
     1
100
AcDbVertex
100
AcDb3dPolylineVertex
  6
SRED
 10
415058.075
 20
381347.317
 30
348.529
 70
    32
  0
VERTEX
  5
       2A6
100
AcDbEntity
  8
RED_LINE
 62
     1
100
AcDbVertex
100
AcDb3dPolylineVertex
  6
SRED
 10
415067.699
 20
381332.698
 30
348.393
 70
    32
  0
VERTEX
  5
       2A7
100
AcDbEntity
  8
RED_LINE
 62
     1
100
AcDbVertex
100
AcDb3dPolylineVertex
  6
SRED
 10
415090.727
 20
381310.9
 30
347.908
 70
    32
  0
VERTEX
  5
       2A8
100
AcDbEntity
  8
RED_LINE
 62
     1
100
AcDbVertex
100
AcDb3dPolylineVertex
  6
SRED
 10
415108.668
 20
381290.951
 30
346.72
 70
    32
  0
VERTEX
  5
       2A9
100
AcDbEntity
  8
RED_LINE
 62
     1
100
AcDbVertex
100
AcDb3dPolylineVertex
  6
SRED
 10
415121.289
 20
381282.499
 30
345.281
 70
    32
  0
VERTEX
  5
       2AA
100
AcDbEntity
  8
RED_LINE
 62
     1
100
AcDbVertex
100
AcDb3dPolylineVertex
  6
SRED
 10
415130.097
 20
381276.997
 30
344.318
 70
    32
  0
VERTEX
  5
       2AB
100
AcDbEntity
  8
RED_LINE
 62
     1
100
AcDbVertex
100
AcDb3dPolylineVertex
  6
SRED
 10
415136.873
 20
381265.545
 30
344.252
 70
    32
  0
VERTEX
  5
       2AC
100
AcDbEntity
  8
RED_LINE
 62
     1
100
AcDbVertex
100
AcDb3dPolylineVertex
  6
SRED
 10
415143.954
 20
381259.22
 30
344.463
 70
    32
  0
VERTEX
  5
       2AD
100
AcDbEntity
  8
RED_LINE
 62
     1
100
AcDbVertex
100
AcDb3dPolylineVertex
  6
SRED
 10
415150.51
 20
381255.141
 30
342.16
 70
    32
  0
VERTEX
  5
       2AE
100
AcDbEntity
  8
RED_LINE
 62
     1
100
AcDbVertex
100
AcDb3dPolylineVertex
  6
SRED
 10
415157.704
 20
381250.69
 30
342.344
 70
    32
  0
VERTEX
  5
       2AF
100
AcDbEntity
  8
RED_LINE
 62
     1
100
AcDbVertex
100
AcDb3dPolylineVertex
  6
SRED
 10
415159.56
 20
381247.273
 30
342.467
 70
    32
  0
SEQEND
  5
       2B0
100
AcDbEntity
  0
POLYLINE
  5
       2B1
100
AcDbEntity
  8
RED_LINE
 62
     1
100
AcDb3dPolyline
  6
SRED
 66
     1
 10
0.0
 20
0.0
 70
     8
  0
VERTEX
  5
       2B2
100
AcDbEntity
  8
RED_LINE
 62
     1
100
AcDbVertex
100
AcDb3dPolylineVertex
  6
SRED
 10
415334.006
 20
381272.03
 30
320.155
 70
    32
  0
VERTEX
  5
       2B3
100
AcDbEntity
  8
RED_LINE
 62
     1
100
AcDbVertex
100
AcDb3dPolylineVertex
  6
SRED
 10
415312.046
 20
381292.243
 30
315.655
 70
    32
  0
VERTEX
  5
       2B4
100
AcDbEntity
  8
RED_LINE
 62
     1
100
AcDbVertex
100
AcDb3dPolylineVertex
  6
SRED
 10
415307.959
 20
381296.39
 30
315.636
 70
    32
  0
VERTEX
  5
       2B5
100
AcDbEntity
  8
RED_LINE
 62
     1
100
AcDbVertex
100
AcDb3dPolylineVertex
  6
SRED
 10
415300.555
 20
381303.43
 30
315.72
 70
    32
  0
VERTEX
  5
       2B6
100
AcDbEntity
  8
RED_LINE
 62
     1
100
AcDbVertex
100
AcDb3dPolylineVertex
  6
SRED
 10
415290.275
 20
381312.579
 30
315.255
 70
    32
  0
SEQEND
  5
       2B7
100
AcDbEntity
  0
POLYLINE
  5
       2B8
100
AcDbEntity
  8
RED_LINE
 62
     1
100
AcDb3dPolyline
  6
SRED
 66
     1
 10
0.0
 20
0.0
 70
     8
  0
VERTEX
  5
       2B9
100
AcDbEntity
  8
RED_LINE
 62
     1
100
AcDbVertex
100
AcDb3dPolylineVertex
  6
SRED
 10
415234.171
 20
381323.597
 30
325.439
 70
    32
  0
VERTEX
  5
       2BA
100
AcDbEntity
  8
RED_LINE
 62
     1
100
AcDbVertex
100
AcDb3dPolylineVertex
  6
SRED
 10
415248.83
 20
381327.002
 30
323.451
 70
    32
  0
VERTEX
  5
       2BB
100
AcDbEntity
  8
RED_LINE
 62
     1
100
AcDbVertex
100
AcDb3dPolylineVertex
  6
SRED
 10
415257.733
 20
381328.597
 30
321.999
 70
    32
  0
VERTEX
  5
       2BC
100
AcDbEntity
  8
RED_LINE
 62
     1
100
AcDbVertex
100
AcDb3dPolylineVertex
  6
SRED
 10
415266.032
 20
381330.704
 30
321.039
 70
    32
  0
VERTEX
  5
       2BD
100
AcDbEntity
  8
RED_LINE
 62
     1
100
AcDbVertex
100
AcDb3dPolylineVertex
  6
SRED
 10
415271.109
 20
381329.708
 30
321.33
 70
    32
  0
VERTEX
  5
       2BE
100
AcDbEntity
  8
RED_LINE
 62
     1
100
AcDbVertex
100
AcDb3dPolylineVertex
  6
SRED
 10
415275.333
 20
381328.552
 30
321.126
 70
    32
  0
VERTEX
  5
       2BF
100
AcDbEntity
  8
RED_LINE
 62
     1
100
AcDbVertex
100
AcDb3dPolylineVertex
  6
SRED
 10
415279.28
 20
381322.235
 30
321.963
 70
    32
  0
VERTEX
  5
       2C0
100
AcDbEntity
  8
RED_LINE
 62
     1
100
AcDbVertex
100
AcDb3dPolylineVertex
  6
SRED
 10
415284.586
 20
381317.134
 30
321.349
 70
    32
  0
VERTEX
  5
       2C1
100
AcDbEntity
  8
RED_LINE
 62
     1
100
AcDbVertex
100
AcDb3dPolylineVertex
  6
SRED
 10
415289.549
 20
381312.121
 30
321.705
 70
    32
  0
VERTEX
  5
       2C2
100
AcDbEntity
  8
RED_LINE
 62
     1
100
AcDbVertex
100
AcDb3dPolylineVertex
  6
SRED
 10
415293.189
 20
381309.1
 30
321.385
 70
    32
  0
VERTEX
  5
       2C3
100
AcDbEntity
  8
RED_LINE
 62
     1
100
AcDbVertex
100
AcDb3dPolylineVertex
  6
SRED
 10
415304.652
 20
381297.538
 30
324.345
 70
    32
  0
VERTEX
  5
       2C4
100
AcDbEntity
  8
RED_LINE
 62
     1
100
AcDbVertex
100
AcDb3dPolylineVertex
  6
SRED
 10
415318.439
 20
381285.399
 30
325.659
 70
    32
  0
SEQEND
  5
       2C5
100
AcDbEntity
  0
POLYLINE
  5
       2C6
100
AcDbEntity
  8
ORANGE_LINE
 62
    30
100
AcDb3dPolyline
  6
SORA
 66
     1
 10
0.0
 20
0.0
 70
     8
  0
VERTEX
  5
       2C7
100
AcDbEntity
  8
ORANGE_LINE
 62
    30
100
AcDbVertex
100
AcDb3dPolylineVertex
  6
SORA
 10
415437.378
 20
381454.53
 30
236.912
 70
    32
  0
VERTEX
  5
       2C8
100
AcDbEntity
  8
ORANGE_LINE
 62
    30
100
AcDbVertex
100
AcDb3dPolylineVertex
  6
SORA
 10
415438.338
 20
381454.203
 30
235.374
 70
    32
  0
VERTEX
  5
       2C9
100
AcDbEntity
  8
ORANGE_LINE
 62
    30
100
AcDbVertex
100
AcDb3dPolylineVertex
  6
SORA
 10
415437.856
 20
381456.036
 30
234.476
 70
    32
  0
VERTEX
  5
       2CA
100
AcDbEntity
  8
ORANGE_LINE
 62
    30
100
AcDbVertex
100
AcDb3dPolylineVertex
  6
SORA
 10
415436.681
 20
381458.072
 30
234.865
 70
    32
  0
VERTEX
  5
       2CB
100
AcDbEntity
  8
ORANGE_LINE
 62
    30
100
AcDbVertex
100
AcDb3dPolylineVertex
  6
SORA
 10
415436.15
 20
381456.675
 30
237.972
 70
    32
  0
VERTEX
  5
       2CC
100
AcDbEntity
  8
ORANGE_LINE
 62
    30
100
AcDbVertex
100
AcDb3dPolylineVertex
  6
SORA
 10
415437.378
 20
381454.53
 30
236.912
 70
    32
  0
SEQEND
  5
       2CD
100
AcDbEntity
  0
INSERT
  5
       2CE
100
AcDbEntity
  8
MARKER_POINT
 62
     7
100
AcDbBlockReference
  2
PMKR
 10
415230.728
 20
381339.306
 30
313.78
 50
0.0
  0
INSERT
  5
       2CF
100
AcDbEntity
  8
STATIONS
100
AcDbBlockReference
  2
STATION
 10
415255.0508
 20
381507.7136
 30
292.752
 50
0.0
  0
TEXT
  5
       2D0
100
AcDbEntity
  8
STATIONS
100
AcDbText
 10
415257.051
 20
381508.214
 30
292.752
 40
2.0
  1
1
  7
STNS
 50
0.0
 41
1.0
 72
     0
100
AcDbText
 73
     0
  0
TEXT
  5
       2D1
100
AcDbEntity
  8
STATIONS
100
AcDbText
 10
415257.051
 20
381505.214
 30
292.752
 40
2.0
  1
292.752
  7
STNS
 50
0.0
 41
1.0
 72
     0
100
AcDbText
 73
     0
  0
INSERT
  5
       2D2
100
AcDbEntity
  8
STATIONS
100
AcDbBlockReference
  2
STATION
 10
415527.4787
 20
381303.9322
 30
322.4048
 50
0.0
  0
TEXT
  5
       2D3
100
AcDbEntity
  8
STATIONS
100
AcDbText
 10
415529.479
 20
381304.432
 30
322.405
 40
2.0
  1
20
  7
STNS
 50
0.0
 41
1.0
 72
     0
100
AcDbText
 73
     0
  0
TEXT
  5
       2D4
100
AcDbEntity
  8
STATIONS
100
AcDbText
 10
415529.479
 20
381301.432
 30
322.405
 40
2.0
  1
322.405
  7
STNS
 50
0.0
 41
1.0
 72
     0
100
AcDbText
 73
     0
  0
TEXT
  5
       2D5
100
AcDbEntity
  8
GRID
100
AcDbText
 10
414903.5
 20
381001.0
 40
2.0
  1
381000N
  7
MTP
 50
0.0
 41
1.0
 72
     0
100
AcDbText
 73
     0
  0
LINE
  5
       2D6
100
AcDbEntity
  8
GRID
100
AcDbLine
 10
414900.0
 20
381000.0
 11
415800.0
 21
381000.0
  0
TEXT
  5
       2D7
100
AcDbEntity
  8
GRID
100
AcDbText
 10
415783.0
 20
381001.0
 40
2.0
  1
381000N
  7
MTP
 50
0.0
 41
1.0
 72
     0
100
AcDbText
 73
     0
  0
TEXT
  5
       2D8
100
AcDbEntity
  8
GRID
100
AcDbText
 10
414901.0
 20
381101.0
 40
2.0
  1
381100N
  7
MTP
 50
0.0
 41
1.0
 72
     0
100
AcDbText
 73
     0
  0
LINE
  5
       2D9
100
AcDbEntity
  8
GRID
100
AcDbLine
 10
414900.0
 20
381100.0
 11
415800.0
 21
381100.0
  0
TEXT
  5
       2DA
100
AcDbEntity
  8
GRID
100
AcDbText
 10
415785.0
 20
381101.0
 40
2.0
  1
381100N
  7
MTP
 50
0.0
 41
1.0
 72
     0
100
AcDbText
 73
     0
  0
TEXT
  5
       2DB
100
AcDbEntity
  8
GRID
100
AcDbText
 10
414901.0
 20
381201.0
 40
2.0
  1
381200N
  7
MTP
 50
0.0
 41
1.0
 72
     0
100
AcDbText
 73
     0
  0
LINE
  5
       2DC
100
AcDbEntity
  8
GRID
100
AcDbLine
 10
414900.0
 20
381200.0
 11
415800.0
 21
381200.0
  0
TEXT
  5
       2DD
100
AcDbEntity
  8
GRID
100
AcDbText
 10
415785.0
 20
381201.0
 40
2.0
  1
381200N
  7
MTP
 50
0.0
 41
1.0
 72
     0
100
AcDbText
 73
     0
  0
TEXT
  5
       2DE
100
AcDbEntity
  8
GRID
100
AcDbText
 10
414901.0
 20
381301.0
 40
2.0
  1
381300N
  7
MTP
 50
0.0
 41
1.0
 72
     0
100
AcDbText
 73
     0
  0
LINE
  5
       2DF
100
AcDbEntity
  8
GRID
100
AcDbLine
 10
414900.0
 20
381300.0
 11
415800.0
 21
381300.0
  0
TEXT
  5
       2E0
100
AcDbEntity
  8
GRID
100
AcDbText
 10
415785.0
 20
381301.0
 40
2.0
  1
381300N
  7
MTP
 50
0.0
 41
1.0
 72
     0
100
AcDbText
 73
     0
  0
TEXT
  5
       2E1
100
AcDbEntity
  8
GRID
100
AcDbText
 10
414901.0
 20
381401.0
 40
2.0
  1
381400N
  7
MTP
 50
0.0
 41
1.0
 72
     0
100
AcDbText
 73
     0
  0
LINE
  5
       2E2
100
AcDbEntity
  8
GRID
100
AcDbLine
 10
414900.0
 20
381400.0
 11
415800.0
 21
381400.0
  0
TEXT
  5
       2E3
100
AcDbEntity
  8
GRID
100
AcDbText
 10
415785.0
 20
381401.0
 40
2.0
  1
381400N
  7
MTP
 50
0.0
 41
1.0
 72
     0
100
AcDbText
 73
     0
  0
TEXT
  5
       2E4
100
AcDbEntity
  8
GRID
100
AcDbText
 10
414901.0
 20
381501.0
 40
2.0
  1
381500N
  7
MTP
 50
0.0
 41
1.0
 72
     0
100
AcDbText
 73
     0
  0
LINE
  5
       2E5
100
AcDbEntity
  8
GRID
100
AcDbLine
 10
414900.0
 20
381500.0
 11
415800.0
 21
381500.0
  0
TEXT
  5
       2E6
100
AcDbEntity
  8
GRID
100
AcDbText
 10
415785.0
 20
381501.0
 40
2.0
  1
381500N
  7
MTP
 50
0.0
 41
1.0
 72
     0
100
AcDbText
 73
     0
  0
TEXT
  5
       2E7
100
AcDbEntity
  8
GRID
100
AcDbText
 10
414903.5
 20
381597.0
 40
2.0
  1
381600N
  7
MTP
 50
0.0
 41
1.0
 72
     0
100
AcDbText
 73
     0
  0
LINE
  5
       2E8
100
AcDbEntity
  8
GRID
100
AcDbLine
 10
414900.0
 20
381600.0
 11
415800.0
 21
381600.0
  0
TEXT
  5
       2E9
100
AcDbEntity
  8
GRID
100
AcDbText
 10
415783.0
 20
381597.0
 40
2.0
  1
381600N
  7
MTP
 50
0.0
 41
1.0
 72
     0
100
AcDbText
 73
     0
  0
TEXT
  5
       2EA
100
AcDbEntity
  8
GRID
100
AcDbText
 10
414901.0
 20
381017.0
 40
2.0
  1
414900E
  7
MTP
 50
270.0
 41
1.0
 72
     0
100
AcDbText
 73
     0
  0
LINE
  5
       2EB
100
AcDbEntity
  8
GRID
100
AcDbLine
 10
414900.0
 20
381000.0
 11
414900.0
 21
381600.0
  0
TEXT
  5
       2EC
100
AcDbEntity
  8
GRID
100
AcDbText
 10
414901.0
 20
381596.5
 40
2.0
  1
414900E
  7
MTP
 50
270.0
 41
1.0
 72
     0
100
AcDbText
 73
     0
  0
TEXT
  5
       2ED
100
AcDbEntity
  8
GRID
100
AcDbText
 10
415001.0
 20
381015.0
 40
2.0
  1
415000E
  7
MTP
 50
270.0
 41
1.0
 72
     0
100
AcDbText
 73
     0
  0
LINE
  5
       2EE
100
AcDbEntity
  8
GRID
100
AcDbLine
 10
415000.0
 20
381000.0
 11
415000.0
 21
381600.0
  0
TEXT
  5
       2EF
100
AcDbEntity
  8
GRID
100
AcDbText
 10
415001.0
 20
381599.0
 40
2.0
  1
415000E
  7
MTP
 50
270.0
 41
1.0
 72
     0
100
AcDbText
 73
     0
  0
TEXT
  5
       2F0
100
AcDbEntity
  8
GRID
100
AcDbText
 10
415101.0
 20
381015.0
 40
2.0
  1
415100E
  7
MTP
 50
270.0
 41
1.0
 72
     0
100
AcDbText
 73
     0
  0
LINE
  5
       2F1
100
AcDbEntity
  8
GRID
100
AcDbLine
 10
415100.0
 20
381000.0
 11
415100.0
 21
381600.0
  0
TEXT
  5
       2F2
100
AcDbEntity
  8
GRID
100
AcDbText
 10
415101.0
 20
381599.0
 40
2.0
  1
415100E
  7
MTP
 50
270.0
 41
1.0
 72
     0
100
AcDbText
 73
     0
  0
TEXT
  5
       2F3
100
AcDbEntity
  8
GRID
100
AcDbText
 10
415201.0
 20
381015.0
 40
2.0
  1
415200E
  7
MTP
 50
270.0
 41
1.0
 72
     0
100
AcDbText
 73
     0
  0
LINE
  5
       2F4
100
AcDbEntity
  8
GRID
100
AcDbLine
 10
415200.0
 20
381000.0
 11
415200.0
 21
381600.0
  0
TEXT
  5
       2F5
100
AcDbEntity
  8
GRID
100
AcDbText
 10
415201.0
 20
381599.0
 40
2.0
  1
415200E
  7
MTP
 50
270.0
 41
1.0
 72
     0
100
AcDbText
 73
     0
  0
TEXT
  5
       2F6
100
AcDbEntity
  8
GRID
100
AcDbText
 10
415301.0
 20
381015.0
 40
2.0
  1
415300E
  7
MTP
 50
270.0
 41
1.0
 72
     0
100
AcDbText
 73
     0
  0
LINE
  5
       2F7
100
AcDbEntity
  8
GRID
100
AcDbLine
 10
415300.0
 20
381000.0
 11
415300.0
 21
381600.0
  0
TEXT
  5
       2F8
100
AcDbEntity
  8
GRID
100
AcDbText
 10
415301.0
 20
381599.0
 40
2.0
  1
415300E
  7
MTP
 50
270.0
 41
1.0
 72
     0
100
AcDbText
 73
     0
  0
TEXT
  5
       2F9
100
AcDbEntity
  8
GRID
100
AcDbText
 10
415401.0
 20
381015.0
 40
2.0
  1
415400E
  7
MTP
 50
270.0
 41
1.0
 72
     0
100
AcDbText
 73
     0
  0
LINE
  5
       2FA
100
AcDbEntity
  8
GRID
100
AcDbLine
 10
415400.0
 20
381000.0
 11
415400.0
 21
381600.0
  0
TEXT
  5
       2FB
100
AcDbEntity
  8
GRID
100
AcDbText
 10
415401.0
 20
381599.0
 40
2.0
  1
415400E
  7
MTP
 50
270.0
 41
1.0
 72
     0
100
AcDbText
 73
     0
  0
TEXT
  5
       2FC
100
AcDbEntity
  8
GRID
100
AcDbText
 10
415501.0
 20
381015.0
 40
2.0
  1
415500E
  7
MTP
 50
270.0
 41
1.0
 72
     0
100
AcDbText
 73
     0
  0
LINE
  5
       2FD
100
AcDbEntity
  8
GRID
100
AcDbLine
 10
415500.0
 20
381000.0
 11
415500.0
 21
381600.0
  0
TEXT
  5
       2FE
100
AcDbEntity
  8
GRID
100
AcDbText
 10
415501.0
 20
381599.0
 40
2.0
  1
415500E
  7
MTP
 50
270.0
 41
1.0
 72
     0
100
AcDbText
 73
     0
  0
TEXT
  5
       2FF
100
AcDbEntity
  8
GRID
100
AcDbText
 10
415601.0
 20
381015.0
 40
2.0
  1
415600E
  7
MTP
 50
270.0
 41
1.0
 72
     0
100
AcDbText
 73
     0
  0
LINE
  5
       300
100
AcDbEntity
  8
GRID
100
AcDbLine
 10
415600.0
 20
381000.0
 11
415600.0
 21
381600.0
  0
TEXT
  5
       301
100
AcDbEntity
  8
GRID
100
AcDbText
 10
415601.0
 20
381599.0
 40
2.0
  1
415600E
  7
MTP
 50
270.0
 41
1.0
 72
     0
100
AcDbText
 73
     0
  0
TEXT
  5
       302
100
AcDbEntity
  8
GRID
100
AcDbText
 10
415701.0
 20
381015.0
 40
2.0
  1
415700E
  7
MTP
 50
270.0
 41
1.0
 72
     0
100
AcDbText
 73
     0
  0
LINE
  5
       303
100
AcDbEntity
  8
GRID
100
AcDbLine
 10
415700.0
 20
381000.0
 11
415700.0
 21
381600.0
  0
TEXT
  5
       304
100
AcDbEntity
  8
GRID
100
AcDbText
 10
415701.0
 20
381599.0
 40
2.0
  1
415700E
  7
MTP
 50
270.0
 41
1.0
 72
     0
100
AcDbText
 73
     0
  0
TEXT
  5
       305
100
AcDbEntity
  8
GRID
100
AcDbText
 10
415797.0
 20
381017.0
 40
2.0
  1
415800E
  7
MTP
 50
270.0
 41
1.0
 72
     0
100
AcDbText
 73
     0
  0
LINE
  5
       306
100
AcDbEntity
  8
GRID
100
AcDbLine
 10
415800.0
 20
381000.0
 11
415800.0
 21
381600.0
  0
TEXT
  5
       307
100
AcDbEntity
  8
GRID
100
AcDbText
 10
415797.0
 20
381596.5
 40
2.0
  1
415800E
  7
MTP
 50
270.0
 41
1.0
 72
     0
100
AcDbText
 73
     0
  0
INSERT
  5
       308
100
AcDbEntity
  8
OBS_MARKER
 62
     7
100
AcDbBlockReference
  2
P_Z
 10
415183.89
 20
381348.708
 30
317.49
 41
0.5
 42
0.5
 43
0.5
  0
INSERT
  5
       309
100
AcDbEntity
  8
OBS_MARKER
 62
     7
100
AcDbBlockReference
  2
P_Z
 10
415181.989
 20
381349.012
 30
317.974
 41
0.5
 42
0.5
 43
0.5
  0
INSERT
  5
       30A
100
AcDbEntity
  8
OBS_MARKER
 62
     7
100
AcDbBlockReference
  2
P_Z
 10
415177.655
 20
381358.016
 30
317.847
 41
0.5
 42
0.5
 43
0.5
  0
INSERT
  5
       30B
100
AcDbEntity
  8
OBS_MARKER
 62
     7
100
AcDbBlockReference
  2
P_Z
 10
415172.384
 20
381363.978
 30
318.125
 41
0.5
 42
0.5
 43
0.5
  0
INSERT
  5
       30C
100
AcDbEntity
  8
OBS_MARKER
 62
     7
100
AcDbBlockReference
  2
P_Z
 10
415169.814
 20
381364.431
 30
318.219
 41
0.5
 42
0.5
 43
0.5
  0
INSERT
  5
       30D
100
AcDbEntity
  8
OBS_MARKER
 62
     7
100
AcDbBlockReference
  2
P_Z
 10
415159.963
 20
381381.903
 30
318.564
 41
0.5
 42
0.5
 43
0.5
  0
INSERT
  5
       30E
100
AcDbEntity
  8
OBS_MARKER
 62
     7
100
AcDbBlockReference
  2
P_Z
 10
415154.833
 20
381384.156
 30
318.512
 41
0.5
 42
0.5
 43
0.5
  0
INSERT
  5
       30F
100
AcDbEntity
  8
OBS_MARKER
 62
     7
100
AcDbBlockReference
  2
P_Z
 10
415145.258
 20
381384.319
 30
318.959
 41
0.5
 42
0.5
 43
0.5
  0
INSERT
  5
       310
100
AcDbEntity
  8
OBS_MARKER
 62
     7
100
AcDbBlockReference
  2
P_Z
 10
415133.61
 20
381381.904
 30
319.795
 41
0.5
 42
0.5
 43
0.5
  0
INSERT
  5
       311
100
AcDbEntity
  8
OBS_MARKER
 62
     7
100
AcDbBlockReference
  2
P_Z
 10
415130.843
 20
381381.634
 30
319.992
 41
0.5
 42
0.5
 43
0.5
  0
INSERT
  5
       312
100
AcDbEntity
  8
OBS_MARKER
 62
     7
100
AcDbBlockReference
  2
P_Z
 10
415128.917
 20
381385.785
 30
319.882
 41
0.5
 42
0.5
 43
0.5
  0
INSERT
  5
       313
100
AcDbEntity
  8
OBS_MARKER
 62
     7
100
AcDbBlockReference
  2
P_Z
 10
415228.757
 20
381126.033
 30
373.536
 41
0.5
 42
0.5
 43
0.5
  0
INSERT
  5
       314
100
AcDbEntity
  8
OBS_MARKER
 62
     7
100
AcDbBlockReference
  2
P_Z
 10
415218.238
 20
381123.099
 30
374.391
 41
0.5
 42
0.5
 43
0.5
  0
INSERT
  5
       315
100
AcDbEntity
  8
OBS_MARKER
 62
     7
100
AcDbBlockReference
  2
P_Z
 10
415209.123
 20
381119.216
 30
375.434
 41
0.5
 42
0.5
 43
0.5
  0
INSERT
  5
       316
100
AcDbEntity
  8
OBS_MARKER
 62
     7
100
AcDbBlockReference
  2
P_Z
 10
415197.789
 20
381115.902
 30
376.432
 41
0.5
 42
0.5
 43
0.5
  0
INSERT
  5
       317
100
AcDbEntity
  8
OBS_MARKER
 62
     7
100
AcDbBlockReference
  2
P_Z
 10
415138.504
 20
381189.132
 30
374.936
 41
0.5
 42
0.5
 43
0.5
  0
INSERT
  5
       318
100
AcDbEntity
  8
OBS_MARKER
 62
     7
100
AcDbBlockReference
  2
P_Z
 10
415131.228
 20
381194.068
 30
374.127
 41
0.5
 42
0.5
 43
0.5
  0
INSERT
  5
       319
100
AcDbEntity
  8
OBS_MARKER
 62
     7
100
AcDbBlockReference
  2
P_Z
 10
415126.559
 20
381196.347
 30
374.039
 41
0.5
 42
0.5
 43
0.5
  0
INSERT
  5
       31A
100
AcDbEntity
  8
OBS_MARKER
 62
     7
100
AcDbBlockReference
  2
P_Z
 10
415121.848
 20
381202.278
 30
374.698
 41
0.5
 42
0.5
 43
0.5
  0
INSERT
  5
       31B
100
AcDbEntity
  8
OBS_MARKER
 62
     7
100
AcDbBlockReference
  2
P_Z
 10
415108.642
 20
381255.503
 30
362.87
 41
0.5
 42
0.5
 43
0.5
  0
INSERT
  5
       31C
100
AcDbEntity
  8
OBS_MARKER
 62
     7
100
AcDbBlockReference
  2
P_Z
 10
415091.318
 20
381266.126
 30
363.554
 41
0.5
 42
0.5
 43
0.5
  0
INSERT
  5
       31D
100
AcDbEntity
  8
OBS_MARKER
 62
     7
100
AcDbBlockReference
  2
P_Z
 10
415073.73
 20
381281.904
 30
363.975
 41
0.5
 42
0.5
 43
0.5
  0
INSERT
  5
       31E
100
AcDbEntity
  8
OBS_MARKER
 62
     7
100
AcDbBlockReference
  2
P_Z
 10
415056.377
 20
381302.862
 30
365.691
 41
0.5
 42
0.5
 43
0.5
  0
INSERT
  5
       31F
100
AcDbEntity
  8
OBS_MARKER
 62
     7
100
AcDbBlockReference
  2
P_Z
 10
415047.625
 20
381310.771
 30
366.897
 41
0.5
 42
0.5
 43
0.5
  0
INSERT
  5
       320
100
AcDbEntity
  8
OBS_MARKER
 62
     7
100
AcDbBlockReference
  2
P_Z
 10
415163.502
 20
381194.171
 30
356.608
 41
0.5
 42
0.5
 43
0.5
  0
INSERT
  5
       321
100
AcDbEntity
  8
OBS_MARKER
 62
     7
100
AcDbBlockReference
  2
P_Z
 10
415169.952
 20
381189.005
 30
356.438
 41
0.5
 42
0.5
 43
0.5
  0
INSERT
  5
       322
100
AcDbEntity
  8
OBS_MARKER
 62
     7
100
AcDbBlockReference
  2
P_Z
 10
415177.499
 20
381182.822
 30
355.868
 41
0.5
 42
0.5
 43
0.5
  0
INSERT
  5
       323
100
AcDbEntity
  8
OBS_MARKER
 62
     7
100
AcDbBlockReference
  2
P_Z
 10
415181.442
 20
381177.15
 30
355.56
 41
0.5
 42
0.5
 43
0.5
  0
INSERT
  5
       324
100
AcDbEntity
  8
OBS_MARKER
 62
     7
100
AcDbBlockReference
  2
P_Z
 10
415189.228
 20
381172.219
 30
355.13
 41
0.5
 42
0.5
 43
0.5
  0
INSERT
  5
       325
100
AcDbEntity
  8
OBS_MARKER
 62
     7
100
AcDbBlockReference
  2
P_Z
 10
415196.198
 20
381171.94
 30
354.462
 41
0.5
 42
0.5
 43
0.5
  0
INSERT
  5
       326
100
AcDbEntity
  8
OBS_MARKER
 62
     7
100
AcDbBlockReference
  2
P_Z
 10
415203.17
 20
381243.801
 30
351.372
 41
0.5
 42
0.5
 43
0.5
  0
INSERT
  5
       327
100
AcDbEntity
  8
OBS_MARKER
 62
     7
100
AcDbBlockReference
  2
P_Z
 10
415193.578
 20
381242.0
 30
350.852
 41
0.5
 42
0.5
 43
0.5
  0
INSERT
  5
       328
100
AcDbEntity
  8
OBS_MARKER
 62
     7
100
AcDbBlockReference
  2
P_Z
 10
415184.829
 20
381239.844
 30
350.312
 41
0.5
 42
0.5
 43
0.5
  0
INSERT
  5
       329
100
AcDbEntity
  8
OBS_MARKER
 62
     7
100
AcDbBlockReference
  2
P_Z
 10
415176.855
 20
381239.219
 30
350.453
 41
0.5
 42
0.5
 43
0.5
  0
INSERT
  5
       32A
100
AcDbEntity
  8
OBS_MARKER
 62
     7
100
AcDbBlockReference
  2
P_Z
 10
415171.361
 20
381237.455
 30
350.767
 41
0.5
 42
0.5
 43
0.5
  0
INSERT
  5
       32B
100
AcDbEntity
  8
OBS_MARKER
 62
     7
100
AcDbBlockReference
  2
P_Z
 10
415168.411
 20
381237.638
 30
350.799
 41
0.5
 42
0.5
 43
0.5
  0
INSERT
  5
       32C
100
AcDbEntity
  8
OBS_MARKER
 62
     7
100
AcDbBlockReference
  2
P_Z
 10
415164.163
 20
381240.198
 30
351.29
 41
0.5
 42
0.5
 43
0.5
  0
INSERT
  5
       32D
100
AcDbEntity
  8
OBS_MARKER
 62
     7
100
AcDbBlockReference
  2
P_Z
 10
415157.509
 20
381246.518
 30
351.144
 41
0.5
 42
0.5
 43
0.5
  0
INSERT
  5
       32E
100
AcDbEntity
  8
OBS_MARKER
 62
     7
100
AcDbBlockReference
  2
P_Z
 10
415151.241
 20
381253.626
 30
350.713
 41
0.5
 42
0.5
 43
0.5
  0
INSERT
  5
       32F
100
AcDbEntity
  8
OBS_MARKER
 62
     7
100
AcDbBlockReference
  2
P_Z
 10
415144.569
 20
381256.433
 30
350.884
 41
0.5
 42
0.5
 43
0.5
  0
INSERT
  5
       330
100
AcDbEntity
  8
OBS_MARKER
 62
     7
100
AcDbBlockReference
  2
P_Z
 10
415137.788
 20
381262.396
 30
350.698
 41
0.5
 42
0.5
 43
0.5
  0
INSERT
  5
       331
100
AcDbEntity
  8
OBS_MARKER
 62
     7
100
AcDbBlockReference
  2
P_Z
 10
415131.665
 20
381269.413
 30
350.791
 41
0.5
 42
0.5
 43
0.5
  0
INSERT
  5
       332
100
AcDbEntity
  8
OBS_MARKER
 62
     7
100
AcDbBlockReference
  2
P_Z
 10
415118.425
 20
381280.715
 30
352.04
 41
0.5
 42
0.5
 43
0.5
  0
INSERT
  5
       333
100
AcDbEntity
  8
OBS_MARKER
 62
     7
100
AcDbBlockReference
  2
P_Z
 10
415100.047
 20
381296.192
 30
353.473
 41
0.5
 42
0.5
 43
0.5
  0
INSERT
  5
       334
100
AcDbEntity
  8
OBS_MARKER
 62
     7
100
AcDbBlockReference
  2
P_Z
 10
415073.117
 20
381322.783
 30
355.409
 41
0.5
 42
0.5
 43
0.5
  0
INSERT
  5
       335
100
AcDbEntity
  8
OBS_MARKER
 62
     7
100
AcDbBlockReference
  2
P_Z
 10
415062.938
 20
381339.485
 30
354.86
 41
0.5
 42
0.5
 43
0.5
  0
INSERT
  5
       336
100
AcDbEntity
  8
OBS_MARKER
 62
     7
100
AcDbBlockReference
  2
P_Z
 10
415044.746
 20
381361.531
 30
356.167
 41
0.5
 42
0.5
 43
0.5
  0
INSERT
  5
       337
100
AcDbEntity
  8
OBS_MARKER
 62
     7
100
AcDbBlockReference
  2
P_Z
 10
415031.299
 20
381380.21
 30
358.411
 41
0.5
 42
0.5
 43
0.5
  0
INSERT
  5
       338
100
AcDbEntity
  8
OBS_MARKER
 62
     7
100
AcDbBlockReference
  2
P_Z
 10
415216.043
 20
381247.71
 30
342.395
 41
0.5
 42
0.5
 43
0.5
  0
INSERT
  5
       339
100
AcDbEntity
  8
OBS_MARKER
 62
     7
100
AcDbBlockReference
  2
P_Z
 10
415208.669
 20
381246.623
 30
345.029
 41
0.5
 42
0.5
 43
0.5
  0
INSERT
  5
       33A
100
AcDbEntity
  8
OBS_MARKER
 62
     7
100
AcDbBlockReference
  2
P_Z
 10
415206.65
 20
381246.499
 30
346.317
 41
0.5
 42
0.5
 43
0.5
  0
INSERT
  5
       33B
100
AcDbEntity
  8
OBS_MARKER
 62
     7
100
AcDbBlockReference
  2
P_Z
 10
415198.28
 20
381245.269
 30
345.727
 41
0.5
 42
0.5
 43
0.5
  0
INSERT
  5
       33C
100
AcDbEntity
  8
OBS_MARKER
 62
     7
100
AcDbBlockReference
  2
P_Z
 10
415189.583
 20
381243.439
 30
345.142
 41
0.5
 42
0.5
 43
0.5
  0
INSERT
  5
       33D
100
AcDbEntity
  8
OBS_MARKER
 62
     7
100
AcDbBlockReference
  2
P_Z
 10
415182.456
 20
381241.106
 30
344.732
 41
0.5
 42
0.5
 43
0.5
  0
INSERT
  5
       33E
100
AcDbEntity
  8
OBS_MARKER
 62
     7
100
AcDbBlockReference
  2
P_Z
 10
415174.715
 20
381240.225
 30
344.945
 41
0.5
 42
0.5
 43
0.5
  0
INSERT
  5
       33F
100
AcDbEntity
  8
OBS_MARKER
 62
     7
100
AcDbBlockReference
  2
P_Z
 10
415168.572
 20
381239.406
 30
344.936
 41
0.5
 42
0.5
 43
0.5
  0
INSERT
  5
       340
100
AcDbEntity
  8
OBS_MARKER
 62
     7
100
AcDbBlockReference
  2
P_Z
 10
415151.014
 20
381254.206
 30
345.013
 41
0.5
 42
0.5
 43
0.5
  0
INSERT
  5
       341
100
AcDbEntity
  8
OBS_MARKER
 62
     7
100
AcDbBlockReference
  2
P_Z
 10
415150.51
 20
381255.141
 30
342.16
 41
0.5
 42
0.5
 43
0.5
  0
INSERT
  5
       342
100
AcDbEntity
  8
OBS_MARKER
 62
     7
100
AcDbBlockReference
  2
P_Z
 10
415143.954
 20
381259.22
 30
344.463
 41
0.5
 42
0.5
 43
0.5
  0
INSERT
  5
       343
100
AcDbEntity
  8
OBS_MARKER
 62
     7
100
AcDbBlockReference
  2
P_Z
 10
415136.873
 20
381265.545
 30
344.252
 41
0.5
 42
0.5
 43
0.5
  0
INSERT
  5
       344
100
AcDbEntity
  8
OBS_MARKER
 62
     7
100
AcDbBlockReference
  2
P_Z
 10
415130.097
 20
381276.997
 30
344.318
 41
0.5
 42
0.5
 43
0.5
  0
INSERT
  5
       345
100
AcDbEntity
  8
OBS_MARKER
 62
     7
100
AcDbBlockReference
  2
P_Z
 10
415121.289
 20
381282.499
 30
345.281
 41
0.5
 42
0.5
 43
0.5
  0
INSERT
  5
       346
100
AcDbEntity
  8
OBS_MARKER
 62
     7
100
AcDbBlockReference
  2
P_Z
 10
415108.668
 20
381290.951
 30
346.72
 41
0.5
 42
0.5
 43
0.5
  0
INSERT
  5
       347
100
AcDbEntity
  8
OBS_MARKER
 62
     7
100
AcDbBlockReference
  2
P_Z
 10
415090.727
 20
381310.9
 30
347.908
 41
0.5
 42
0.5
 43
0.5
  0
INSERT
  5
       348
100
AcDbEntity
  8
OBS_MARKER
 62
     7
100
AcDbBlockReference
  2
P_Z
 10
415067.699
 20
381332.698
 30
348.393
 41
0.5
 42
0.5
 43
0.5
  0
INSERT
  5
       349
100
AcDbEntity
  8
OBS_MARKER
 62
     7
100
AcDbBlockReference
  2
P_Z
 10
415058.075
 20
381347.317
 30
348.529
 41
0.5
 42
0.5
 43
0.5
  0
INSERT
  5
       34A
100
AcDbEntity
  8
OBS_MARKER
 62
     7
100
AcDbBlockReference
  2
P_Z
 10
415038.811
 20
381372.057
 30
349.524
 41
0.5
 42
0.5
 43
0.5
  0
INSERT
  5
       34B
100
AcDbEntity
  8
OBS_MARKER
 62
     7
100
AcDbBlockReference
  2
P_Z
 10
415025.044
 20
381395.334
 30
351.835
 41
0.5
 42
0.5
 43
0.5
  0
INSERT
  5
       34C
100
AcDbEntity
  8
OBS_MARKER
 62
     7
100
AcDbBlockReference
  2
P_Z
 10
415012.145
 20
381420.122
 30
353.186
 41
0.5
 42
0.5
 43
0.5
  0
INSERT
  5
       34D
100
AcDbEntity
  8
OBS_MARKER
 62
     7
100
AcDbBlockReference
  2
P_Z
 10
415002.632
 20
381433.414
 30
353.4
 41
0.5
 42
0.5
 43
0.5
  0
INSERT
  5
       34E
100
AcDbEntity
  8
OBS_MARKER
 62
     7
100
AcDbBlockReference
  2
P_Z
 10
415017.201
 20
381442.94
 30
353.33
 41
0.5
 42
0.5
 43
0.5
  0
INSERT
  5
       34F
100
AcDbEntity
  8
OBS_MARKER
 62
     7
100
AcDbBlockReference
  2
P_Z
 10
415045.68
 20
381476.2
 30
345.38
 41
0.5
 42
0.5
 43
0.5
  0
INSERT
  5
       350
100
AcDbEntity
  8
OBS_MARKER
 62
     7
100
AcDbBlockReference
  2
P_Z
 10
415038.187
 20
381457.379
 30
347.134
 41
0.5
 42
0.5
 43
0.5
  0
INSERT
  5
       351
100
AcDbEntity
  8
OBS_MARKER
 62
     7
100
AcDbBlockReference
  2
P_Z
 10
415033.885
 20
381453.783
 30
347.952
 41
0.5
 42
0.5
 43
0.5
  0
INSERT
  5
       352
100
AcDbEntity
  8
OBS_MARKER
 62
     7
100
AcDbBlockReference
  2
P_Z
 10
415021.792
 20
381444.878
 30
349.184
 41
0.5
 42
0.5
 43
0.5
  0
INSERT
  5
       353
100
AcDbEntity
  8
OBS_MARKER
 62
     7
100
AcDbBlockReference
  2
P_Z
 10
415012.572
 20
381438.717
 30
350.548
 41
0.5
 42
0.5
 43
0.5
  0
INSERT
  5
       354
100
AcDbEntity
  8
OBS_MARKER
 62
     7
100
AcDbBlockReference
  2
P_Z
 10
415006.385
 20
381433.512
 30
350.56
 41
0.5
 42
0.5
 43
0.5
  0
INSERT
  5
       355
100
AcDbEntity
  8
OBS_MARKER
 62
     7
100
AcDbBlockReference
  2
P_Z
 10
415034.114
 20
381380.651
 30
346.763
 41
0.5
 42
0.5
 43
0.5
  0
INSERT
  5
       356
100
AcDbEntity
  8
OBS_MARKER
 62
     7
100
AcDbBlockReference
  2
P_Z
 10
415149.998
 20
381254.862
 30
342.147
 41
0.5
 42
0.5
 43
0.5
  0
INSERT
  5
       357
100
AcDbEntity
  8
OBS_MARKER
 62
     7
100
AcDbBlockReference
  2
P_Z
 10
415157.704
 20
381250.69
 30
342.344
 41
0.5
 42
0.5
 43
0.5
  0
INSERT
  5
       358
100
AcDbEntity
  8
OBS_MARKER
 62
     7
100
AcDbBlockReference
  2
P_Z
 10
415159.56
 20
381247.273
 30
342.467
 41
0.5
 42
0.5
 43
0.5
  0
INSERT
  5
       359
100
AcDbEntity
  8
OBS_MARKER
 62
     7
100
AcDbBlockReference
  2
P_Z
 10
415160.544
 20
381244.338
 30
345.185
 41
0.5
 42
0.5
 43
0.5
  0
INSERT
  5
       35A
100
AcDbEntity
  8
OBS_MARKER
 62
     7
100
AcDbBlockReference
  2
P_Z
 10
415140.891
 20
381260.692
 30
341.882
 41
0.5
 42
0.5
 43
0.5
  0
INSERT
  5
       35B
100
AcDbEntity
  8
OBS_MARKER
 62
     7
100
AcDbBlockReference
  2
P_Z
 10
415157.224
 20
381250.367
 30
345.275
 41
0.5
 42
0.5
 43
0.5
  0
INSERT
  5
       35C
100
AcDbEntity
  8
OBS_MARKER
 62
     7
100
AcDbBlockReference
  2
P_Z
 10
415316.339
 20
381198.943
 30
340.865
 41
0.5
 42
0.5
 43
0.5
  0
INSERT
  5
       35D
100
AcDbEntity
  8
OBS_MARKER
 62
     7
100
AcDbBlockReference
  2
P_Z
 10
415312.915
 20
381199.73
 30
340.968
 41
0.5
 42
0.5
 43
0.5
  0
INSERT
  5
       35E
100
AcDbEntity
  8
OBS_MARKER
 62
     7
100
AcDbBlockReference
  2
P_Z
 10
415304.355
 20
381198.282
 30
341.548
 41
0.5
 42
0.5
 43
0.5
  0
INSERT
  5
       35F
100
AcDbEntity
  8
OBS_MARKER
 62
     7
100
AcDbBlockReference
  2
P_Z
 10
415285.315
 20
381192.884
 30
342.749
 41
0.5
 42
0.5
 43
0.5
  0
INSERT
  5
       360
100
AcDbEntity
  8
OBS_MARKER
 62
     7
100
AcDbBlockReference
  2
P_Z
 10
415273.666
 20
381191.466
 30
343.272
 41
0.5
 42
0.5
 43
0.5
  0
INSERT
  5
       361
100
AcDbEntity
  8
OBS_MARKER
 62
     7
100
AcDbBlockReference
  2
P_Z
 10
415267.63
 20
381200.198
 30
342.84
 41
0.5
 42
0.5
 43
0.5
  0
INSERT
  5
       362
100
AcDbEntity
  8
OBS_MARKER
 62
     7
100
AcDbBlockReference
  2
P_Z
 10
415259.868
 20
381208.266
 30
343.322
 41
0.5
 42
0.5
 43
0.5
  0
INSERT
  5
       363
100
AcDbEntity
  8
OBS_MARKER
 62
     7
100
AcDbBlockReference
  2
P_Z
 10
415252.052
 20
381220.053
 30
343.689
 41
0.5
 42
0.5
 43
0.5
  0
INSERT
  5
       364
100
AcDbEntity
  8
OBS_MARKER
 62
     7
100
AcDbBlockReference
  2
P_Z
 10
415238.653
 20
381233.971
 30
344.152
 41
0.5
 42
0.5
 43
0.5
  0
INSERT
  5
       365
100
AcDbEntity
  8
OBS_MARKER
 62
     7
100
AcDbBlockReference
  2
P_Z
 10
415315.734
 20
381199.355
 30
344.985
 41
0.5
 42
0.5
 43
0.5
  0
INSERT
  5
       366
100
AcDbEntity
  8
OBS_MARKER
 62
     7
100
AcDbBlockReference
  2
P_Z
 10
415310.263
 20
381200.652
 30
345.343
 41
0.5
 42
0.5
 43
0.5
  0
INSERT
  5
       367
100
AcDbEntity
  8
OBS_MARKER
 62
     7
100
AcDbBlockReference
  2
P_Z
 10
415275.27
 20
381193.706
 30
348.448
 41
0.5
 42
0.5
 43
0.5
  0
INSERT
  5
       368
100
AcDbEntity
  8
OBS_MARKER
 62
     7
100
AcDbBlockReference
  2
P_Z
 10
415267.297
 20
381204.362
 30
348.316
 41
0.5
 42
0.5
 43
0.5
  0
INSERT
  5
       369
100
AcDbEntity
  8
OBS_MARKER
 62
     7
100
AcDbBlockReference
  2
P_Z
 10
415259.724
 20
381212.35
 30
348.986
 41
0.5
 42
0.5
 43
0.5
  0
INSERT
  5
       36A
100
AcDbEntity
  8
OBS_MARKER
 62
     7
100
AcDbBlockReference
  2
P_Z
 10
415236.687
 20
381237.273
 30
350.287
 41
0.5
 42
0.5
 43
0.5
  0
INSERT
  5
       36B
100
AcDbEntity
  8
OBS_MARKER
 62
     7
100
AcDbBlockReference
  2
P_Z
 10
415224.312
 20
381244.884
 30
351.028
 41
0.5
 42
0.5
 43
0.5
  0
INSERT
  5
       36C
100
AcDbEntity
  8
OBS_MARKER
 62
     7
100
AcDbBlockReference
  2
P_Z
 10
415154.637
 20
381545.353
 30
329.079
 41
0.5
 42
0.5
 43
0.5
  0
INSERT
  5
       36D
100
AcDbEntity
  8
OBS_MARKER
 62
     7
100
AcDbBlockReference
  2
P_Z
 10
415138.867
 20
381533.928
 30
331.15
 41
0.5
 42
0.5
 43
0.5
  0
INSERT
  5
       36E
100
AcDbEntity
  8
OBS_MARKER
 62
     7
100
AcDbBlockReference
  2
P_Z
 10
415111.367
 20
381514.471
 30
332.564
 41
0.5
 42
0.5
 43
0.5
  0
INSERT
  5
       36F
100
AcDbEntity
  8
OBS_MARKER
 62
     7
100
AcDbBlockReference
  2
P_Z
 10
415085.496
 20
381496.919
 30
333.557
 41
0.5
 42
0.5
 43
0.5
  0
INSERT
  5
       370
100
AcDbEntity
  8
OBS_MARKER
 62
     7
100
AcDbBlockReference
  2
P_Z
 10
415069.35
 20
381468.479
 30
334.014
 41
0.5
 42
0.5
 43
0.5
  0
INSERT
  5
       371
100
AcDbEntity
  8
OBS_MARKER
 62
     7
100
AcDbBlockReference
  2
P_Z
 10
415071.533
 20
381458.606
 30
335.72
 41
0.5
 42
0.5
 43
0.5
  0
INSERT
  5
       372
100
AcDbEntity
  8
OBS_MARKER
 62
     7
100
AcDbBlockReference
  2
P_Z
 10
415063.711
 20
381444.795
 30
336.43
 41
0.5
 42
0.5
 43
0.5
  0
INSERT
  5
       373
100
AcDbEntity
  8
OBS_MARKER
 62
     7
100
AcDbBlockReference
  2
P_Z
 10
415056.128
 20
381432.987
 30
337.265
 41
0.5
 42
0.5
 43
0.5
  0
INSERT
  5
       374
100
AcDbEntity
  8
OBS_MARKER
 62
     7
100
AcDbBlockReference
  2
P_Z
 10
415062.594
 20
381422.118
 30
336.439
 41
0.5
 42
0.5
 43
0.5
  0
INSERT
  5
       375
100
AcDbEntity
  8
OBS_MARKER
 62
     7
100
AcDbBlockReference
  2
P_Z
 10
415070.658
 20
381408.532
 30
335.326
 41
0.5
 42
0.5
 43
0.5
  0
INSERT
  5
       376
100
AcDbEntity
  8
OBS_MARKER
 62
     7
100
AcDbBlockReference
  2
P_Z
 10
415084.236
 20
381390.494
 30
334.97
 41
0.5
 42
0.5
 43
0.5
  0
INSERT
  5
       377
100
AcDbEntity
  8
OBS_MARKER
 62
     7
100
AcDbBlockReference
  2
P_Z
 10
415087.925
 20
381384.656
 30
334.481
 41
0.5
 42
0.5
 43
0.5
  0
INSERT
  5
       378
100
AcDbEntity
  8
OBS_MARKER
 62
     7
100
AcDbBlockReference
  2
P_Z
 10
415092.169
 20
381370.586
 30
334.51
 41
0.5
 42
0.5
 43
0.5
  0
INSERT
  5
       379
100
AcDbEntity
  8
OBS_MARKER
 62
     7
100
AcDbBlockReference
  2
P_Z
 10
415098.311
 20
381365.001
 30
334.349
 41
0.5
 42
0.5
 43
0.5
  0
INSERT
  5
       37A
100
AcDbEntity
  8
OBS_MARKER
 62
     7
100
AcDbBlockReference
  2
P_Z
 10
415107.485
 20
381347.84
 30
333.838
 41
0.5
 42
0.5
 43
0.5
  0
INSERT
  5
       37B
100
AcDbEntity
  8
OBS_MARKER
 62
     7
100
AcDbBlockReference
  2
P_Z
 10
415125.195
 20
381316.877
 30
333.005
 41
0.5
 42
0.5
 43
0.5
  0
INSERT
  5
       37C
100
AcDbEntity
  8
OBS_MARKER
 62
     7
100
AcDbBlockReference
  2
P_Z
 10
415135.777
 20
381307.073
 30
333.364
 41
0.5
 42
0.5
 43
0.5
  0
INSERT
  5
       37D
100
AcDbEntity
  8
OBS_MARKER
 62
     7
100
AcDbBlockReference
  2
P_Z
 10
415140.83
 20
381305.521
 30
332.632
 41
0.5
 42
0.5
 43
0.5
  0
INSERT
  5
       37E
100
AcDbEntity
  8
OBS_MARKER
 62
     7
100
AcDbBlockReference
  2
P_Z
 10
415101.455
 20
381360.884
 30
328.991
 41
0.5
 42
0.5
 43
0.5
  0
INSERT
  5
       37F
100
AcDbEntity
  8
OBS_MARKER
 62
     7
100
AcDbBlockReference
  2
P_Z
 10
415080.058
 20
381396.895
 30
331.564
 41
0.5
 42
0.5
 43
0.5
  0
INSERT
  5
       380
100
AcDbEntity
  8
OBS_MARKER
 62
     7
100
AcDbBlockReference
  2
P_Z
 10
415076.081
 20
381403.291
 30
331.512
 41
0.5
 42
0.5
 43
0.5
  0
INSERT
  5
       381
100
AcDbEntity
  8
OBS_MARKER
 62
     7
100
AcDbBlockReference
  2
P_Z
 10
415069.459
 20
381411.695
 30
333.052
 41
0.5
 42
0.5
 43
0.5
  0
INSERT
  5
       382
100
AcDbEntity
  8
OBS_MARKER
 62
     7
100
AcDbBlockReference
  2
P_Z
 10
415061.368
 20
381425.385
 30
333.908
 41
0.5
 42
0.5
 43
0.5
  0
INSERT
  5
       383
100
AcDbEntity
  8
OBS_MARKER
 62
     7
100
AcDbBlockReference
  2
P_Z
 10
415056.89
 20
381433.928
 30
335.395
 41
0.5
 42
0.5
 43
0.5
  0
INSERT
  5
       384
100
AcDbEntity
  8
OBS_MARKER
 62
     7
100
AcDbBlockReference
  2
P_Z
 10
415063.009
 20
381442.762
 30
333.682
 41
0.5
 42
0.5
 43
0.5
  0
INSERT
  5
       385
100
AcDbEntity
  8
OBS_MARKER
 62
     7
100
AcDbBlockReference
  2
P_Z
 10
415069.989
 20
381455.572
 30
331.653
 41
0.5
 42
0.5
 43
0.5
  0
INSERT
  5
       386
100
AcDbEntity
  8
OBS_MARKER
 62
     7
100
AcDbBlockReference
  2
P_Z
 10
415079.37
 20
381465.966
 30
330.584
 41
0.5
 42
0.5
 43
0.5
  0
INSERT
  5
       387
100
AcDbEntity
  8
OBS_MARKER
 62
     7
100
AcDbBlockReference
  2
P_Z
 10
415087.517
 20
381480.12
 30
329.351
 41
0.5
 42
0.5
 43
0.5
  0
INSERT
  5
       388
100
AcDbEntity
  8
OBS_MARKER
 62
     7
100
AcDbBlockReference
  2
P_Z
 10
415086.32
 20
381384.213
 30
330.728
 41
0.5
 42
0.5
 43
0.5
  0
INSERT
  5
       389
100
AcDbEntity
  8
OBS_MARKER
 62
     7
100
AcDbBlockReference
  2
P_Z
 10
415335.724
 20
381271.703
 30
314.694
 41
0.5
 42
0.5
 43
0.5
  0
INSERT
  5
       38A
100
AcDbEntity
  8
OBS_MARKER
 62
     7
100
AcDbBlockReference
  2
P_Z
 10
415325.677
 20
381281.869
 30
315.602
 41
0.5
 42
0.5
 43
0.5
  0
INSERT
  5
       38B
100
AcDbEntity
  8
OBS_MARKER
 62
     7
100
AcDbBlockReference
  2
P_Z
 10
415307.959
 20
381296.39
 30
315.636
 41
0.5
 42
0.5
 43
0.5
  0
INSERT
  5
       38C
100
AcDbEntity
  8
OBS_MARKER
 62
     7
100
AcDbBlockReference
  2
P_Z
 10
415300.555
 20
381303.43
 30
315.72
 41
0.5
 42
0.5
 43
0.5
  0
INSERT
  5
       38D
100
AcDbEntity
  8
OBS_MARKER
 62
     7
100
AcDbBlockReference
  2
P_Z
 10
415290.275
 20
381312.579
 30
315.255
 41
0.5
 42
0.5
 43
0.5
  0
INSERT
  5
       38E
100
AcDbEntity
  8
OBS_MARKER
 62
     7
100
AcDbBlockReference
  2
P_Z
 10
415282.947
 20
381320.127
 30
314.868
 41
0.5
 42
0.5
 43
0.5
  0
INSERT
  5
       38F
100
AcDbEntity
  8
OBS_MARKER
 62
     7
100
AcDbBlockReference
  2
P_Z
 10
415279.968
 20
381322.483
 30
314.884
 41
0.5
 42
0.5
 43
0.5
  0
INSERT
  5
       390
100
AcDbEntity
  8
OBS_MARKER
 62
     7
100
AcDbBlockReference
  2
P_Z
 10
415279.039
 20
381326.165
 30
314.754
 41
0.5
 42
0.5
 43
0.5
  0
INSERT
  5
       391
100
AcDbEntity
  8
OBS_MARKER
 62
     7
100
AcDbBlockReference
  2
P_Z
 10
415273.66
 20
381330.109
 30
314.966
 41
0.5
 42
0.5
 43
0.5
  0
INSERT
  5
       392
100
AcDbEntity
  8
OBS_MARKER
 62
     7
100
AcDbBlockReference
  2
P_Z
 10
415267.38
 20
381332.269
 30
314.975
 41
0.5
 42
0.5
 43
0.5
  0
INSERT
  5
       393
100
AcDbEntity
  8
OBS_MARKER
 62
     7
100
AcDbBlockReference
  2
P_Z
 10
415260.552
 20
381331.285
 30
315.162
 41
0.5
 42
0.5
 43
0.5
  0
INSERT
  5
       394
100
AcDbEntity
  8
OBS_MARKER
 62
     7
100
AcDbBlockReference
  2
P_Z
 10
415254.331
 20
381329.915
 30
315.74
 41
0.5
 42
0.5
 43
0.5
  0
INSERT
  5
       395
100
AcDbEntity
  8
OBS_MARKER
 62
     7
100
AcDbBlockReference
  2
P_Z
 10
415241.3
 20
381327.307
 30
317.1
 41
0.5
 42
0.5
 43
0.5
  0
INSERT
  5
       396
100
AcDbEntity
  8
OBS_MARKER
 62
     7
100
AcDbBlockReference
  2
P_Z
 10
415233.992
 20
381326.294
 30
317.805
 41
0.5
 42
0.5
 43
0.5
  0
INSERT
  5
       397
100
AcDbEntity
  8
OBS_MARKER
 62
     7
100
AcDbBlockReference
  2
P_Z
 10
415222.534
 20
381323.509
 30
318.787
 41
0.5
 42
0.5
 43
0.5
  0
INSERT
  5
       398
100
AcDbEntity
  8
OBS_MARKER
 62
     7
100
AcDbBlockReference
  2
P_Z
 10
415215.915
 20
381332.925
 30
318.16
 41
0.5
 42
0.5
 43
0.5
  0
INSERT
  5
       399
100
AcDbEntity
  8
OBS_MARKER
 62
     7
100
AcDbBlockReference
  2
P_Z
 10
415211.129
 20
381339.757
 30
318.279
 41
0.5
 42
0.5
 43
0.5
  0
INSERT
  5
       39A
100
AcDbEntity
  8
OBS_MARKER
 62
     7
100
AcDbBlockReference
  2
P_Z
 10
415208.585
 20
381343.923
 30
318.161
 41
0.5
 42
0.5
 43
0.5
  0
INSERT
  5
       39B
100
AcDbEntity
  8
OBS_MARKER
 62
     7
100
AcDbBlockReference
  2
P_Z
 10
415189.732
 20
381346.556
 30
319.196
 41
0.5
 42
0.5
 43
0.5
  0
INSERT
  5
       39C
100
AcDbEntity
  8
OBS_MARKER
 62
     7
100
AcDbBlockReference
  2
P_Z
 10
415181.354
 20
381349.92
 30
319.645
 41
0.5
 42
0.5
 43
0.5
  0
INSERT
  5
       39D
100
AcDbEntity
  8
OBS_MARKER
 62
     7
100
AcDbBlockReference
  2
P_Z
 10
415125.879
 20
381393.684
 30
321.866
 41
0.5
 42
0.5
 43
0.5
  0
INSERT
  5
       39E
100
AcDbEntity
  8
OBS_MARKER
 62
     7
100
AcDbBlockReference
  2
P_Z
 10
415120.688
 20
381410.053
 30
322.595
 41
0.5
 42
0.5
 43
0.5
  0
INSERT
  5
       39F
100
AcDbEntity
  8
OBS_MARKER
 62
     7
100
AcDbBlockReference
  2
P_Z
 10
415114.291
 20
381425.111
 30
322.079
 41
0.5
 42
0.5
 43
0.5
  0
INSERT
  5
       3A0
100
AcDbEntity
  8
OBS_MARKER
 62
     7
100
AcDbBlockReference
  2
P_Z
 10
415110.452
 20
381435.338
 30
322.606
 41
0.5
 42
0.5
 43
0.5
  0
INSERT
  5
       3A1
100
AcDbEntity
  8
OBS_MARKER
 62
     7
100
AcDbBlockReference
  2
P_Z
 10
415106.895
 20
381443.785
 30
322.924
 41
0.5
 42
0.5
 43
0.5
  0
INSERT
  5
       3A2
100
AcDbEntity
  8
OBS_MARKER
 62
     7
100
AcDbBlockReference
  2
P_Z
 10
415106.695
 20
381453.318
 30
322.301
 41
0.5
 42
0.5
 43
0.5
  0
INSERT
  5
       3A3
100
AcDbEntity
  8
OBS_MARKER
 62
     7
100
AcDbBlockReference
  2
P_Z
 10
415110.266
 20
381474.522
 30
322.276
 41
0.5
 42
0.5
 43
0.5
  0
INSERT
  5
       3A4
100
AcDbEntity
  8
OBS_MARKER
 62
     7
100
AcDbBlockReference
  2
P_Z
 10
415120.055
 20
381493.032
 30
321.674
 41
0.5
 42
0.5
 43
0.5
  0
INSERT
  5
       3A5
100
AcDbEntity
  8
OBS_MARKER
 62
     7
100
AcDbBlockReference
  2
P_Z
 10
415133.706
 20
381501.976
 30
320.791
 41
0.5
 42
0.5
 43
0.5
  0
INSERT
  5
       3A6
100
AcDbEntity
  8
OBS_MARKER
 62
     7
100
AcDbBlockReference
  2
P_Z
 10
415159.453
 20
381517.768
 30
319.363
 41
0.5
 42
0.5
 43
0.5
  0
INSERT
  5
       3A7
100
AcDbEntity
  8
OBS_MARKER
 62
     7
100
AcDbBlockReference
  2
P_Z
 10
415312.046
 20
381292.243
 30
315.655
 41
0.5
 42
0.5
 43
0.5
  0
INSERT
  5
       3A8
100
AcDbEntity
  8
OBS_MARKER
 62
     7
100
AcDbBlockReference
  2
P_Z
 10
415334.006
 20
381272.03
 30
320.155
 41
0.5
 42
0.5
 43
0.5
  0
INSERT
  5
       3A9
100
AcDbEntity
  8
OBS_MARKER
 62
     7
100
AcDbBlockReference
  2
P_Z
 10
415293.261
 20
381309.968
 30
321.385
 41
0.5
 42
0.5
 43
0.5
  0
INSERT
  5
       3AA
100
AcDbEntity
  8
OBS_MARKER
 62
     7
100
AcDbBlockReference
  2
P_Z
 10
415289.549
 20
381312.121
 30
321.705
 41
0.5
 42
0.5
 43
0.5
  0
INSERT
  5
       3AB
100
AcDbEntity
  8
OBS_MARKER
 62
     7
100
AcDbBlockReference
  2
P_Z
 10
415284.586
 20
381317.134
 30
321.349
 41
0.5
 42
0.5
 43
0.5
  0
INSERT
  5
       3AC
100
AcDbEntity
  8
OBS_MARKER
 62
     7
100
AcDbBlockReference
  2
P_Z
 10
415279.28
 20
381322.235
 30
321.963
 41
0.5
 42
0.5
 43
0.5
  0
INSERT
  5
       3AD
100
AcDbEntity
  8
OBS_MARKER
 62
     7
100
AcDbBlockReference
  2
P_Z
 10
415275.333
 20
381328.552
 30
321.126
 41
0.5
 42
0.5
 43
0.5
  0
INSERT
  5
       3AE
100
AcDbEntity
  8
OBS_MARKER
 62
     7
100
AcDbBlockReference
  2
P_Z
 10
415271.109
 20
381329.708
 30
321.33
 41
0.5
 42
0.5
 43
0.5
  0
INSERT
  5
       3AF
100
AcDbEntity
  8
OBS_MARKER
 62
     7
100
AcDbBlockReference
  2
P_Z
 10
415266.032
 20
381330.704
 30
321.039
 41
0.5
 42
0.5
 43
0.5
  0
INSERT
  5
       3B0
100
AcDbEntity
  8
OBS_MARKER
 62
     7
100
AcDbBlockReference
  2
P_Z
 10
415257.733
 20
381328.597
 30
321.999
 41
0.5
 42
0.5
 43
0.5
  0
INSERT
  5
       3B1
100
AcDbEntity
  8
OBS_MARKER
 62
     7
100
AcDbBlockReference
  2
P_Z
 10
415248.83
 20
381327.002
 30
323.451
 41
0.5
 42
0.5
 43
0.5
  0
INSERT
  5
       3B2
100
AcDbEntity
  8
OBS_MARKER
 62
     7
100
AcDbBlockReference
  2
P_Z
 10
415234.171
 20
381323.597
 30
325.439
 41
0.5
 42
0.5
 43
0.5
  0
INSERT
  5
       3B3
100
AcDbEntity
  8
OBS_MARKER
 62
     7
100
AcDbBlockReference
  2
P_Z
 10
415404.434
 20
381270.863
 30
323.868
 41
0.5
 42
0.5
 43
0.5
  0
INSERT
  5
       3B4
100
AcDbEntity
  8
OBS_MARKER
 62
     7
100
AcDbBlockReference
  2
P_Z
 10
415396.329
 20
381264.436
 30
324.755
 41
0.5
 42
0.5
 43
0.5
  0
INSERT
  5
       3B5
100
AcDbEntity
  8
OBS_MARKER
 62
     7
100
AcDbBlockReference
  2
P_Z
 10
415391.532
 20
381253.441
 30
324.809
 41
0.5
 42
0.5
 43
0.5
  0
INSERT
  5
       3B6
100
AcDbEntity
  8
OBS_MARKER
 62
     7
100
AcDbBlockReference
  2
P_Z
 10
415385.673
 20
381250.609
 30
325.139
 41
0.5
 42
0.5
 43
0.5
  0
INSERT
  5
       3B7
100
AcDbEntity
  8
OBS_MARKER
 62
     7
100
AcDbBlockReference
  2
P_Z
 10
415372.734
 20
381242.442
 30
325.476
 41
0.5
 42
0.5
 43
0.5
  0
INSERT
  5
       3B8
100
AcDbEntity
  8
OBS_MARKER
 62
     7
100
AcDbBlockReference
  2
P_Z
 10
415353.661
 20
381247.798
 30
324.68
 41
0.5
 42
0.5
 43
0.5
  0
INSERT
  5
       3B9
100
AcDbEntity
  8
OBS_MARKER
 62
     7
100
AcDbBlockReference
  2
P_Z
 10
415334.091
 20
381270.786
 30
322.976
 41
0.5
 42
0.5
 43
0.5
  0
INSERT
  5
       3BA
100
AcDbEntity
  8
OBS_MARKER
 62
     7
100
AcDbBlockReference
  2
P_Z
 10
415319.637
 20
381283.167
 30
324.898
 41
0.5
 42
0.5
 43
0.5
  0
INSERT
  5
       3BB
100
AcDbEntity
  8
OBS_MARKER
 62
     7
100
AcDbBlockReference
  2
P_Z
 10
415306.15
 20
381295.476
 30
325.652
 41
0.5
 42
0.5
 43
0.5
  0
INSERT
  5
       3BC
100
AcDbEntity
  8
OBS_MARKER
 62
     7
100
AcDbBlockReference
  2
P_Z
 10
415300.234
 20
381301.38
 30
326.154
 41
0.5
 42
0.5
 43
0.5
  0
INSERT
  5
       3BD
100
AcDbEntity
  8
OBS_MARKER
 62
     7
100
AcDbBlockReference
  2
P_Z
 10
415291.749
 20
381309.408
 30
324.829
 41
0.5
 42
0.5
 43
0.5
  0
INSERT
  5
       3BE
100
AcDbEntity
  8
OBS_MARKER
 62
     7
100
AcDbBlockReference
  2
P_Z
 10
415285.06
 20
381315.204
 30
325.987
 41
0.5
 42
0.5
 43
0.5
  0
INSERT
  5
       3BF
100
AcDbEntity
  8
OBS_MARKER
 62
     7
100
AcDbBlockReference
  2
P_Z
 10
415277.77
 20
381322.68
 30
325.616
 41
0.5
 42
0.5
 43
0.5
  0
INSERT
  5
       3C0
100
AcDbEntity
  8
OBS_MARKER
 62
     7
100
AcDbBlockReference
  2
P_Z
 10
415272.38
 20
381327.096
 30
326.405
 41
0.5
 42
0.5
 43
0.5
  0
INSERT
  5
       3C1
100
AcDbEntity
  8
OBS_MARKER
 62
     7
100
AcDbBlockReference
  2
P_Z
 10
415269.261
 20
381328.349
 30
326.299
 41
0.5
 42
0.5
 43
0.5
  0
INSERT
  5
       3C2
100
AcDbEntity
  8
OBS_MARKER
 62
     7
100
AcDbBlockReference
  2
P_Z
 10
415253.264
 20
381325.968
 30
326.778
 41
0.5
 42
0.5
 43
0.5
  0
INSERT
  5
       3C3
100
AcDbEntity
  8
OBS_MARKER
 62
     7
100
AcDbBlockReference
  2
P_Z
 10
415245.239
 20
381324.198
 30
326.213
 41
0.5
 42
0.5
 43
0.5
  0
INSERT
  5
       3C4
100
AcDbEntity
  8
OBS_MARKER
 62
     7
100
AcDbBlockReference
  2
P_Z
 10
415234.259
 20
381323.615
 30
325.31
 41
0.5
 42
0.5
 43
0.5
  0
INSERT
  5
       3C5
100
AcDbEntity
  8
OBS_MARKER
 62
     7
100
AcDbBlockReference
  2
P_Z
 10
415221.361
 20
381320.816
 30
326.682
 41
0.5
 42
0.5
 43
0.5
  0
INSERT
  5
       3C6
100
AcDbEntity
  8
OBS_MARKER
 62
     7
100
AcDbBlockReference
  2
P_Z
 10
415214.563
 20
381328.921
 30
326.595
 41
0.5
 42
0.5
 43
0.5
  0
INSERT
  5
       3C7
100
AcDbEntity
  8
OBS_MARKER
 62
     7
100
AcDbBlockReference
  2
P_Z
 10
415208.596
 20
381336.997
 30
326.739
 41
0.5
 42
0.5
 43
0.5
  0
INSERT
  5
       3C8
100
AcDbEntity
  8
OBS_MARKER
 62
     7
100
AcDbBlockReference
  2
P_Z
 10
415207.434
 20
381340.253
 30
325.56
 41
0.5
 42
0.5
 43
0.5
  0
INSERT
  5
       3C9
100
AcDbEntity
  8
OBS_MARKER
 62
     7
100
AcDbBlockReference
  2
P_Z
 10
415188.519
 20
381345.114
 30
325.513
 41
0.5
 42
0.5
 43
0.5
  0
INSERT
  5
       3CA
100
AcDbEntity
  8
OBS_MARKER
 62
     7
100
AcDbBlockReference
  2
P_Z
 10
415175.717
 20
381356.414
 30
325.758
 41
0.5
 42
0.5
 43
0.5
  0
INSERT
  5
       3CB
100
AcDbEntity
  8
OBS_MARKER
 62
     7
100
AcDbBlockReference
  2
P_Z
 10
415164.365
 20
381366.532
 30
326.274
 41
0.5
 42
0.5
 43
0.5
  0
INSERT
  5
       3CC
100
AcDbEntity
  8
OBS_MARKER
 62
     7
100
AcDbBlockReference
  2
P_Z
 10
415160.782
 20
381375.807
 30
326.474
 41
0.5
 42
0.5
 43
0.5
  0
INSERT
  5
       3CD
100
AcDbEntity
  8
OBS_MARKER
 62
     7
100
AcDbBlockReference
  2
P_Z
 10
415118.827
 20
381398.744
 30
327.86
 41
0.5
 42
0.5
 43
0.5
  0
INSERT
  5
       3CE
100
AcDbEntity
  8
OBS_MARKER
 62
     7
100
AcDbBlockReference
  2
P_Z
 10
415113.93
 20
381411.852
 30
327.12
 41
0.5
 42
0.5
 43
0.5
  0
INSERT
  5
       3CF
100
AcDbEntity
  8
OBS_MARKER
 62
     7
100
AcDbBlockReference
  2
P_Z
 10
415104.542
 20
381433.923
 30
327.12
 41
0.5
 42
0.5
 43
0.5
  0
INSERT
  5
       3D0
100
AcDbEntity
  8
OBS_MARKER
 62
     7
100
AcDbBlockReference
  2
P_Z
 10
415104.222
 20
381448.094
 30
326.234
 41
0.5
 42
0.5
 43
0.5
  0
INSERT
  5
       3D1
100
AcDbEntity
  8
OBS_MARKER
 62
     7
100
AcDbBlockReference
  2
P_Z
 10
415106.57
 20
381469.602
 30
326.87
 41
0.5
 42
0.5
 43
0.5
  0
INSERT
  5
       3D2
100
AcDbEntity
  8
OBS_MARKER
 62
     7
100
AcDbBlockReference
  2
P_Z
 10
415110.89
 20
381489.776
 30
327.621
 41
0.5
 42
0.5
 43
0.5
  0
INSERT
  5
       3D3
100
AcDbEntity
  8
OBS_MARKER
 62
     7
100
AcDbBlockReference
  2
P_Z
 10
415130.686
 20
381503.538
 30
327.2
 41
0.5
 42
0.5
 43
0.5
  0
INSERT
  5
       3D4
100
AcDbEntity
  8
OBS_MARKER
 62
     7
100
AcDbBlockReference
  2
P_Z
 10
415150.744
 20
381516.911
 30
326.432
 41
0.5
 42
0.5
 43
0.5
  0
INSERT
  5
       3D5
100
AcDbEntity
  8
OBS_MARKER
 62
     7
100
AcDbBlockReference
  2
P_Z
 10
415169.601
 20
381529.153
 30
325.449
 41
0.5
 42
0.5
 43
0.5
  0
INSERT
  5
       3D6
100
AcDbEntity
  8
OBS_MARKER
 62
     7
100
AcDbBlockReference
  2
P_Z
 10
415194.445
 20
381540.739
 30
324.41
 41
0.5
 42
0.5
 43
0.5
  0
INSERT
  5
       3D7
100
AcDbEntity
  8
OBS_MARKER
 62
     7
100
AcDbBlockReference
  2
P_Z
 10
415304.652
 20
381297.538
 30
324.345
 41
0.5
 42
0.5
 43
0.5
  0
INSERT
  5
       3D8
100
AcDbEntity
  8
OBS_MARKER
 62
     7
100
AcDbBlockReference
  2
P_Z
 10
415318.439
 20
381285.399
 30
325.659
 41
0.5
 42
0.5
 43
0.5
  0
INSERT
  5
       3D9
100
AcDbEntity
  8
OBS_MARKER
 62
     7
100
AcDbBlockReference
  2
P_Z
 10
415252.529
 20
381220.592
 30
349.492
 41
0.5
 42
0.5
 43
0.5
  0
INSERT
  5
       3DA
100
AcDbEntity
  8
OBS_MARKER
 62
     7
100
AcDbBlockReference
  2
P_Z
 10
415223.107
 20
381243.324
 30
345.208
 41
0.5
 42
0.5
 43
0.5
  0
INSERT
  5
       3DB
100
AcDbEntity
  8
OBS_MARKER
 62
     7
100
AcDbBlockReference
  2
P_Z
 10
415293.189
 20
381309.1
 30
321.385
 41
0.5
 42
0.5
 43
0.5
  0
INSERT
  5
       3DC
100
AcDbEntity
  8
OBS_MARKER
 62
     7
100
AcDbBlockReference
  2
P_Z
 10
415514.313
 20
381280.67
 30
321.403
 41
0.5
 42
0.5
 43
0.5
  0
INSERT
  5
       3DD
100
AcDbEntity
  8
OBS_MARKER
 62
     7
100
AcDbBlockReference
  2
P_Z
 10
415516.638
 20
381271.379
 30
321.362
 41
0.5
 42
0.5
 43
0.5
  0
INSERT
  5
       3DE
100
AcDbEntity
  8
OBS_MARKER
 62
     7
100
AcDbBlockReference
  2
P_Z
 10
415517.102
 20
381269.669
 30
321.408
 41
0.5
 42
0.5
 43
0.5
  0
INSERT
  5
       3DF
100
AcDbEntity
  8
OBS_MARKER
 62
     7
100
AcDbBlockReference
  2
P_Z
 10
415516.615
 20
381266.935
 30
321.973
 41
0.5
 42
0.5
 43
0.5
  0
INSERT
  5
       3E0
100
AcDbEntity
  8
OBS_MARKER
 62
     7
100
AcDbBlockReference
  2
P_Z
 10
415509.924
 20
381262.949
 30
322.827
 41
0.5
 42
0.5
 43
0.5
  0
INSERT
  5
       3E1
100
AcDbEntity
  8
OBS_MARKER
 62
     7
100
AcDbBlockReference
  2
P_Z
 10
415507.074
 20
381258.839
 30
323.533
 41
0.5
 42
0.5
 43
0.5
  0
INSERT
  5
       3E2
100
AcDbEntity
  8
OBS_MARKER
 62
     7
100
AcDbBlockReference
  2
P_Z
 10
415503.129
 20
381256.407
 30
324.328
 41
0.5
 42
0.5
 43
0.5
  0
INSERT
  5
       3E3
100
AcDbEntity
  8
OBS_MARKER
 62
     7
100
AcDbBlockReference
  2
P_Z
 10
415496.718
 20
381253.137
 30
324.693
 41
0.5
 42
0.5
 43
0.5
  0
INSERT
  5
       3E4
100
AcDbEntity
  8
OBS_MARKER
 62
     7
100
AcDbBlockReference
  2
P_Z
 10
415492.526
 20
381250.442
 30
325.3
 41
0.5
 42
0.5
 43
0.5
  0
INSERT
  5
       3E5
100
AcDbEntity
  8
OBS_MARKER
 62
     7
100
AcDbBlockReference
  2
P_Z
 10
415487.846
 20
381248.676
 30
325.629
 41
0.5
 42
0.5
 43
0.5
  0
INSERT
  5
       3E6
100
AcDbEntity
  8
OBS_MARKER
 62
     7
100
AcDbBlockReference
  2
P_Z
 10
415480.964
 20
381247.642
 30
325.236
 41
0.5
 42
0.5
 43
0.5
  0
INSERT
  5
       3E7
100
AcDbEntity
  8
OBS_MARKER
 62
     7
100
AcDbBlockReference
  2
P_Z
 10
415441.026
 20
381404.996
 30
259.708
 41
0.5
 42
0.5
 43
0.5
  0
INSERT
  5
       3E8
100
AcDbEntity
  8
OBS_MARKER
 62
     7
100
AcDbBlockReference
  2
P_Z
 10
415422.841
 20
381399.846
 30
260.221
 41
0.5
 42
0.5
 43
0.5
  0
INSERT
  5
       3E9
100
AcDbEntity
  8
OBS_MARKER
 62
     7
100
AcDbBlockReference
  2
P_Z
 10
415409.707
 20
381399.242
 30
260.68
 41
0.5
 42
0.5
 43
0.5
  0
INSERT
  5
       3EA
100
AcDbEntity
  8
OBS_MARKER
 62
     7
100
AcDbBlockReference
  2
P_Z
 10
415397.137
 20
381398.901
 30
261.182
 41
0.5
 42
0.5
 43
0.5
  0
INSERT
  5
       3EB
100
AcDbEntity
  8
OBS_MARKER
 62
     7
100
AcDbBlockReference
  2
P_Z
 10
415382.724
 20
381394.75
 30
262.069
 41
0.5
 42
0.5
 43
0.5
  0
INSERT
  5
       3EC
100
AcDbEntity
  8
OBS_MARKER
 62
     7
100
AcDbBlockReference
  2
P_Z
 10
415370.727
 20
381392.225
 30
262.857
 41
0.5
 42
0.5
 43
0.5
  0
INSERT
  5
       3ED
100
AcDbEntity
  8
OBS_MARKER
 62
     7
100
AcDbBlockReference
  2
P_Z
 10
415364.003
 20
381390.772
 30
263.493
 41
0.5
 42
0.5
 43
0.5
  0
INSERT
  5
       3EE
100
AcDbEntity
  8
OBS_MARKER
 62
     7
100
AcDbBlockReference
  2
P_Z
 10
415355.664
 20
381406.612
 30
263.027
 41
0.5
 42
0.5
 43
0.5
  0
INSERT
  5
       3EF
100
AcDbEntity
  8
OBS_MARKER
 62
     7
100
AcDbBlockReference
  2
P_Z
 10
415348.461
 20
381420.134
 30
263.38
 41
0.5
 42
0.5
 43
0.5
  0
INSERT
  5
       3F0
100
AcDbEntity
  8
OBS_MARKER
 62
     7
100
AcDbBlockReference
  2
P_Z
 10
415340.946
 20
381433.46
 30
263.717
 41
0.5
 42
0.5
 43
0.5
  0
INSERT
  5
       3F1
100
AcDbEntity
  8
OBS_MARKER
 62
     7
100
AcDbBlockReference
  2
P_Z
 10
415483.045
 20
381355.676
 30
283.29
 41
0.5
 42
0.5
 43
0.5
  0
INSERT
  5
       3F2
100
AcDbEntity
  8
OBS_MARKER
 62
     7
100
AcDbBlockReference
  2
P_Z
 10
415465.549
 20
381363.743
 30
283.309
 41
0.5
 42
0.5
 43
0.5
  0
INSERT
  5
       3F3
100
AcDbEntity
  8
OBS_MARKER
 62
     7
100
AcDbBlockReference
  2
P_Z
 10
415447.242
 20
381361.323
 30
285.269
 41
0.5
 42
0.5
 43
0.5
  0
INSERT
  5
       3F4
100
AcDbEntity
  8
OBS_MARKER
 62
     7
100
AcDbBlockReference
  2
P_Z
 10
415433.976
 20
381359.717
 30
285.672
 41
0.5
 42
0.5
 43
0.5
  0
INSERT
  5
       3F5
100
AcDbEntity
  8
OBS_MARKER
 62
     7
100
AcDbBlockReference
  2
P_Z
 10
415422.584
 20
381359.313
 30
285.87
 41
0.5
 42
0.5
 43
0.5
  0
INSERT
  5
       3F6
100
AcDbEntity
  8
OBS_MARKER
 62
     7
100
AcDbBlockReference
  2
P_Z
 10
415403.106
 20
381357.014
 30
286.186
 41
0.5
 42
0.5
 43
0.5
  0
INSERT
  5
       3F7
100
AcDbEntity
  8
OBS_MARKER
 62
     7
100
AcDbBlockReference
  2
P_Z
 10
415387.694
 20
381358.388
 30
287.512
 41
0.5
 42
0.5
 43
0.5
  0
INSERT
  5
       3F8
100
AcDbEntity
  8
OBS_MARKER
 62
     7
100
AcDbBlockReference
  2
P_Z
 10
415364.958
 20
381351.368
 30
288.642
 41
0.5
 42
0.5
 43
0.5
  0
INSERT
  5
       3F9
100
AcDbEntity
  8
OBS_MARKER
 62
     7
100
AcDbBlockReference
  2
P_Z
 10
415354.831
 20
381344.971
 30
288.73
 41
0.5
 42
0.5
 43
0.5
  0
INSERT
  5
       3FA
100
AcDbEntity
  8
OBS_MARKER
 62
     7
100
AcDbBlockReference
  2
P_Z
 10
415334.097
 20
381348.192
 30
289.556
 41
0.5
 42
0.5
 43
0.5
  0
INSERT
  5
       3FB
100
AcDbEntity
  8
OBS_MARKER
 62
     7
100
AcDbBlockReference
  2
P_Z
 10
415315.676
 20
381357.9
 30
290.115
 41
0.5
 42
0.5
 43
0.5
  0
INSERT
  5
       3FC
100
AcDbEntity
  8
OBS_MARKER
 62
     7
100
AcDbBlockReference
  2
P_Z
 10
415302.295
 20
381370.369
 30
289.931
 41
0.5
 42
0.5
 43
0.5
  0
INSERT
  5
       3FD
100
AcDbEntity
  8
OBS_MARKER
 62
     7
100
AcDbBlockReference
  2
P_Z
 10
415287.11
 20
381383.103
 30
289.606
 41
0.5
 42
0.5
 43
0.5
  0
INSERT
  5
       3FE
100
AcDbEntity
  8
OBS_MARKER
 62
     7
100
AcDbBlockReference
  2
P_Z
 10
415279.376
 20
381387.572
 30
290.812
 41
0.5
 42
0.5
 43
0.5
  0
INSERT
  5
       3FF
100
AcDbEntity
  8
OBS_MARKER
 62
     7
100
AcDbBlockReference
  2
P_Z
 10
415272.825
 20
381398.247
 30
290.26
 41
0.5
 42
0.5
 43
0.5
  0
INSERT
  5
       400
100
AcDbEntity
  8
OBS_MARKER
 62
     7
100
AcDbBlockReference
  2
P_Z
 10
415263.333
 20
381410.641
 30
290.957
 41
0.5
 42
0.5
 43
0.5
  0
INSERT
  5
       401
100
AcDbEntity
  8
OBS_MARKER
 62
     7
100
AcDbBlockReference
  2
P_Z
 10
415244.887
 20
381428.199
 30
291.556
 41
0.5
 42
0.5
 43
0.5
  0
INSERT
  5
       402
100
AcDbEntity
  8
OBS_MARKER
 62
     7
100
AcDbBlockReference
  2
P_Z
 10
415228.628
 20
381428.595
 30
293.875
 41
0.5
 42
0.5
 43
0.5
  0
INSERT
  5
       403
100
AcDbEntity
  8
OBS_MARKER
 62
     7
100
AcDbBlockReference
  2
P_Z
 10
415221.535
 20
381446.095
 30
291.565
 41
0.5
 42
0.5
 43
0.5
  0
INSERT
  5
       404
100
AcDbEntity
  8
OBS_MARKER
 62
     7
100
AcDbBlockReference
  2
P_Z
 10
415252.659
 20
381418.739
 30
291.44
 41
0.5
 42
0.5
 43
0.5
  0
INSERT
  5
       405
100
AcDbEntity
  8
OBS_MARKER
 62
     7
100
AcDbBlockReference
  2
P_Z
 10
415246.675
 20
381534.54
 30
300.306
 41
0.5
 42
0.5
 43
0.5
  0
INSERT
  5
       406
100
AcDbEntity
  8
OBS_MARKER
 62
     7
100
AcDbBlockReference
  2
P_Z
 10
415230.247
 20
381523.841
 30
301.383
 41
0.5
 42
0.5
 43
0.5
  0
INSERT
  5
       407
100
AcDbEntity
  8
OBS_MARKER
 62
     7
100
AcDbBlockReference
  2
P_Z
 10
415198.719
 20
381504.743
 30
303.14
 41
0.5
 42
0.5
 43
0.5
  0
INSERT
  5
       408
100
AcDbEntity
  8
OBS_MARKER
 62
     7
100
AcDbBlockReference
  2
P_Z
 10
415167.531
 20
381481.249
 30
305.333
 41
0.5
 42
0.5
 43
0.5
  0
INSERT
  5
       409
100
AcDbEntity
  8
OBS_MARKER
 62
     7
100
AcDbBlockReference
  2
P_Z
 10
415273.93
 20
381554.844
 30
302.381
 41
0.5
 42
0.5
 43
0.5
  0
INSERT
  5
       40A
100
AcDbEntity
  8
OBS_MARKER
 62
     7
100
AcDbBlockReference
  2
P_Z
 10
415259.082
 20
381543.569
 30
302.977
 41
0.5
 42
0.5
 43
0.5
  0
INSERT
  5
       40B
100
AcDbEntity
  8
OBS_MARKER
 62
     7
100
AcDbBlockReference
  2
P_Z
 10
415249.727
 20
381536.608
 30
303.12
 41
0.5
 42
0.5
 43
0.5
  0
INSERT
  5
       40C
100
AcDbEntity
  8
OBS_MARKER
 62
     7
100
AcDbBlockReference
  2
P_Z
 10
415027.254
 20
381448.552
 30
345.129
 41
0.5
 42
0.5
 43
0.5
  0
INSERT
  5
       40D
100
AcDbEntity
  8
OBS_MARKER
 62
     7
100
AcDbBlockReference
  2
P_Z
 10
415035.701
 20
381454.58
 30
344.444
 41
0.5
 42
0.5
 43
0.5
  0
INSERT
  5
       40E
100
AcDbEntity
  8
OBS_MARKER
 62
     7
100
AcDbBlockReference
  2
P_Z
 10
415716.52
 20
381492.875
 30
240.693
 41
0.5
 42
0.5
 43
0.5
  0
INSERT
  5
       40F
100
AcDbEntity
  8
OBS_MARKER
 62
     7
100
AcDbBlockReference
  2
P_Z
 10
415713.365
 20
381459.803
 30
239.473
 41
0.5
 42
0.5
 43
0.5
  0
INSERT
  5
       410
100
AcDbEntity
  8
OBS_MARKER
 62
     7
100
AcDbBlockReference
  2
P_Z
 10
415709.406
 20
381441.254
 30
238.714
 41
0.5
 42
0.5
 43
0.5
  0
INSERT
  5
       411
100
AcDbEntity
  8
OBS_MARKER
 62
     7
100
AcDbBlockReference
  2
P_Z
 10
415704.252
 20
381428.859
 30
238.41
 41
0.5
 42
0.5
 43
0.5
  0
INSERT
  5
       412
100
AcDbEntity
  8
OBS_MARKER
 62
     7
100
AcDbBlockReference
  2
P_Z
 10
415702.672
 20
381412.299
 30
238.498
 41
0.5
 42
0.5
 43
0.5
  0
INSERT
  5
       413
100
AcDbEntity
  8
OBS_MARKER
 62
     7
100
AcDbBlockReference
  2
P_Z
 10
415701.319
 20
381407.407
 30
238.446
 41
0.5
 42
0.5
 43
0.5
  0
INSERT
  5
       414
100
AcDbEntity
  8
OBS_MARKER
 62
     7
100
AcDbBlockReference
  2
P_Z
 10
415688.176
 20
381403.894
 30
238.722
 41
0.5
 42
0.5
 43
0.5
  0
INSERT
  5
       415
100
AcDbEntity
  8
OBS_MARKER
 62
     7
100
AcDbBlockReference
  2
P_Z
 10
415678.867
 20
381398.684
 30
239.197
 41
0.5
 42
0.5
 43
0.5
  0
INSERT
  5
       416
100
AcDbEntity
  8
OBS_MARKER
 62
     7
100
AcDbBlockReference
  2
P_Z
 10
415658.009
 20
381396.481
 30
239.575
 41
0.5
 42
0.5
 43
0.5
  0
INSERT
  5
       417
100
AcDbEntity
  8
OBS_MARKER
 62
     7
100
AcDbBlockReference
  2
P_Z
 10
415636.365
 20
381392.397
 30
240.323
 41
0.5
 42
0.5
 43
0.5
  0
INSERT
  5
       418
100
AcDbEntity
  8
OBS_MARKER
 62
     7
100
AcDbBlockReference
  2
P_Z
 10
415636.365
 20
381392.399
 30
240.324
 41
0.5
 42
0.5
 43
0.5
  0
INSERT
  5
       419
100
AcDbEntity
  8
OBS_MARKER
 62
     7
100
AcDbBlockReference
  2
P_Z
 10
415617.332
 20
381393.415
 30
240.992
 41
0.5
 42
0.5
 43
0.5
  0
INSERT
  5
       41A
100
AcDbEntity
  8
OBS_MARKER
 62
     7
100
AcDbBlockReference
  2
P_Z
 10
415610.016
 20
381402.443
 30
241.177
 41
0.5
 42
0.5
 43
0.5
  0
INSERT
  5
       41B
100
AcDbEntity
  8
OBS_MARKER
 62
     7
100
AcDbBlockReference
  2
P_Z
 10
415602.032
 20
381407.963
 30
241.796
 41
0.5
 42
0.5
 43
0.5
  0
INSERT
  5
       41C
100
AcDbEntity
  8
OBS_MARKER
 62
     7
100
AcDbBlockReference
  2
P_Z
 10
415587.525
 20
381412.88
 30
242.946
 41
0.5
 42
0.5
 43
0.5
  0
INSERT
  5
       41D
100
AcDbEntity
  8
OBS_MARKER
 62
     7
100
AcDbBlockReference
  2
P_Z
 10
415571.152
 20
381417.994
 30
243.862
 41
0.5
 42
0.5
 43
0.5
  0
INSERT
  5
       41E
100
AcDbEntity
  8
OBS_MARKER
 62
     7
100
AcDbBlockReference
  2
P_Z
 10
415553.246
 20
381421.689
 30
244.911
 41
0.5
 42
0.5
 43
0.5
  0
INSERT
  5
       41F
100
AcDbEntity
  8
OBS_MARKER
 62
     7
100
AcDbBlockReference
  2
P_Z
 10
415538.418
 20
381425.907
 30
244.972
 41
0.5
 42
0.5
 43
0.5
  0
INSERT
  5
       420
100
AcDbEntity
  8
OBS_MARKER
 62
     7
100
AcDbBlockReference
  2
P_Z
 10
415528.15
 20
381430.234
 30
245.392
 41
0.5
 42
0.5
 43
0.5
  0
INSERT
  5
       421
100
AcDbEntity
  8
OBS_MARKER
 62
     7
100
AcDbBlockReference
  2
P_Z
 10
415510.611
 20
381432.599
 30
247.851
 41
0.5
 42
0.5
 43
0.5
  0
INSERT
  5
       422
100
AcDbEntity
  8
OBS_MARKER
 62
     7
100
AcDbBlockReference
  2
P_Z
 10
415491.909
 20
381440.136
 30
248.905
 41
0.5
 42
0.5
 43
0.5
  0
INSERT
  5
       423
100
AcDbEntity
  8
OBS_MARKER
 62
     7
100
AcDbBlockReference
  2
P_Z
 10
415484.392
 20
381442.448
 30
249.254
 41
0.5
 42
0.5
 43
0.5
  0
INSERT
  5
       424
100
AcDbEntity
  8
OBS_MARKER
 62
     7
100
AcDbBlockReference
  2
P_Z
 10
415467.09
 20
381440.74
 30
251.14
 41
0.5
 42
0.5
 43
0.5
  0
INSERT
  5
       425
100
AcDbEntity
  8
OBS_MARKER
 62
     7
100
AcDbBlockReference
  2
P_Z
 10
415446.849
 20
381436.647
 30
251.888
 41
0.5
 42
0.5
 43
0.5
  0
INSERT
  5
       426
100
AcDbEntity
  8
OBS_MARKER
 62
     7
100
AcDbBlockReference
  2
P_Z
 10
415439.24
 20
381448.145
 30
250.225
 41
0.5
 42
0.5
 43
0.5
  0
INSERT
  5
       427
100
AcDbEntity
  8
OBS_MARKER
 62
     7
100
AcDbBlockReference
  2
P_Z
 10
415420.946
 20
381498.233
 30
248.419
 41
0.5
 42
0.5
 43
0.5
  0
INSERT
  5
       428
100
AcDbEntity
  8
OBS_MARKER
 62
     7
100
AcDbBlockReference
  2
P_Z
 10
415430.067
 20
381502.965
 30
251.82
 41
0.5
 42
0.5
 43
0.5
  0
INSERT
  5
       429
100
AcDbEntity
  8
OBS_MARKER
 62
     7
100
AcDbBlockReference
  2
P_Z
 10
415448.002
 20
381513.593
 30
250.975
 41
0.5
 42
0.5
 43
0.5
  0
INSERT
  5
       42A
100
AcDbEntity
  8
OBS_MARKER
 62
     7
100
AcDbBlockReference
  2
P_Z
 10
415461.871
 20
381522.847
 30
250.357
 41
0.5
 42
0.5
 43
0.5
  0
INSERT
  5
       42B
100
AcDbEntity
  8
OBS_MARKER
 62
     7
100
AcDbBlockReference
  2
P_Z
 10
415468.359
 20
381527.314
 30
248.716
 41
0.5
 42
0.5
 43
0.5
  0
INSERT
  5
       42C
100
AcDbEntity
  8
OBS_MARKER
 62
     7
100
AcDbBlockReference
  2
P_Z
 10
415546.237
 20
381527.115
 30
230.406
 41
0.5
 42
0.5
 43
0.5
  0
INSERT
  5
       42D
100
AcDbEntity
  8
OBS_MARKER
 62
     7
100
AcDbBlockReference
  2
P_Z
 10
415548.174
 20
381528.216
 30
228.764
 41
0.5
 42
0.5
 43
0.5
  0
INSERT
  5
       42E
100
AcDbEntity
  8
OBS_MARKER
 62
     7
100
AcDbBlockReference
  2
P_Z
 10
415549.636
 20
381532.062
 30
227.31
 41
0.5
 42
0.5
 43
0.5
  0
INSERT
  5
       42F
100
AcDbEntity
  8
OBS_MARKER
 62
     7
100
AcDbBlockReference
  2
P_Z
 10
415552.474
 20
381532.955
 30
227.297
 41
0.5
 42
0.5
 43
0.5
  0
INSERT
  5
       430
100
AcDbEntity
  8
OBS_MARKER
 62
     7
100
AcDbBlockReference
  2
P_Z
 10
415551.741
 20
381537.962
 30
229.492
 41
0.5
 42
0.5
 43
0.5
  0
INSERT
  5
       431
100
AcDbEntity
  8
OBS_MARKER
 62
     7
100
AcDbBlockReference
  2
P_Z
 10
415606.668
 20
381390.834
 30
252.428
 41
0.5
 42
0.5
 43
0.5
  0
INSERT
  5
       432
100
AcDbEntity
  8
OBS_MARKER
 62
     7
100
AcDbBlockReference
  2
P_Z
 10
415598.656
 20
381397.52
 30
251.512
 41
0.5
 42
0.5
 43
0.5
  0
INSERT
  5
       433
100
AcDbEntity
  8
OBS_MARKER
 62
     7
100
AcDbBlockReference
  2
P_Z
 10
415591.34
 20
381398.308
 30
252.229
 41
0.5
 42
0.5
 43
0.5
  0
INSERT
  5
       434
100
AcDbEntity
  8
OBS_MARKER
 62
     7
100
AcDbBlockReference
  2
P_Z
 10
415582.143
 20
381399.103
 30
252.947
 41
0.5
 42
0.5
 43
0.5
  0
INSERT
  5
       435
100
AcDbEntity
  8
OBS_MARKER
 62
     7
100
AcDbBlockReference
  2
P_Z
 10
415570.168
 20
381398.247
 30
253.396
 41
0.5
 42
0.5
 43
0.5
  0
INSERT
  5
       436
100
AcDbEntity
  8
OBS_MARKER
 62
     7
100
AcDbBlockReference
  2
P_Z
 10
415557.453
 20
381401.995
 30
253.722
 41
0.5
 42
0.5
 43
0.5
  0
INSERT
  5
       437
100
AcDbEntity
  8
OBS_MARKER
 62
     7
100
AcDbBlockReference
  2
P_Z
 10
415540.414
 20
381405.6
 30
255.092
 41
0.5
 42
0.5
 43
0.5
  0
INSERT
  5
       438
100
AcDbEntity
  8
OBS_MARKER
 62
     7
100
AcDbBlockReference
  2
P_Z
 10
415520.726
 20
381412.124
 30
255.752
 41
0.5
 42
0.5
 43
0.5
  0
INSERT
  5
       439
100
AcDbEntity
  8
OBS_MARKER
 62
     7
100
AcDbBlockReference
  2
P_Z
 10
415501.596
 20
381414.532
 30
257.452
 41
0.5
 42
0.5
 43
0.5
  0
INSERT
  5
       43A
100
AcDbEntity
  8
OBS_MARKER
 62
     7
100
AcDbBlockReference
  2
P_Z
 10
415490.576
 20
381417.38
 30
257.878
 41
0.5
 42
0.5
 43
0.5
  0
INSERT
  5
       43B
100
AcDbEntity
  8
OBS_MARKER
 62
     7
100
AcDbBlockReference
  2
P_Z
 10
415437.856
 20
381456.036
 30
234.476
 41
0.5
 42
0.5
 43
0.5
  0
INSERT
  5
       43C
100
AcDbEntity
  8
OBS_MARKER
 62
     7
100
AcDbBlockReference
  2
P_Z
 10
415438.338
 20
381454.203
 30
235.374
 41
0.5
 42
0.5
 43
0.5
  0
INSERT
  5
       43D
100
AcDbEntity
  8
OBS_MARKER
 62
     7
100
AcDbBlockReference
  2
P_Z
 10
415437.378
 20
381454.53
 30
236.912
 41
0.5
 42
0.5
 43
0.5
  0
INSERT
  5
       43E
100
AcDbEntity
  8
OBS_MARKER
 62
     7
100
AcDbBlockReference
  2
P_Z
 10
415436.15
 20
381456.675
 30
237.972
 41
0.5
 42
0.5
 43
0.5
  0
INSERT
  5
       43F
100
AcDbEntity
  8
OBS_MARKER
 62
     7
100
AcDbBlockReference
  2
P_Z
 10
415436.634
 20
381457.847
 30
236.126
 41
0.5
 42
0.5
 43
0.5
  0
INSERT
  5
       440
100
AcDbEntity
  8
OBS_MARKER
 62
     7
100
AcDbBlockReference
  2
P_Z
 10
415436.681
 20
381458.072
 30
234.865
 41
0.5
 42
0.5
 43
0.5
  0
INSERT
  5
       441
100
AcDbEntity
  8
OBS_MARKER
 62
     7
100
AcDbBlockReference
  2
P_Z
 10
415165.056
 20
381463.079
 30
306.739
 41
0.5
 42
0.5
 43
0.5
  0
INSERT
  5
       442
100
AcDbEntity
  8
OBS_MARKER
 62
     7
100
AcDbBlockReference
  2
P_Z
 10
415172.852
 20
381448.652
 30
306.303
 41
0.5
 42
0.5
 43
0.5
  0
INSERT
  5
       443
100
AcDbEntity
  8
OBS_MARKER
 62
     7
100
AcDbBlockReference
  2
P_Z
 10
415179.695
 20
381434.161
 30
306.183
 41
0.5
 42
0.5
 43
0.5
  0
INSERT
  5
       444
100
AcDbEntity
  8
OBS_MARKER
 62
     7
100
AcDbBlockReference
  2
P_Z
 10
415186.988
 20
381417.712
 30
306.684
 41
0.5
 42
0.5
 43
0.5
  0
INSERT
  5
       445
100
AcDbEntity
  8
OBS_MARKER
 62
     7
100
AcDbBlockReference
  2
P_Z
 10
415193.416
 20
381400.227
 30
306.387
 41
0.5
 42
0.5
 43
0.5
  0
INSERT
  5
       446
100
AcDbEntity
  8
OBS_MARKER
 62
     7
100
AcDbBlockReference
  2
P_Z
 10
415198.156
 20
381391.37
 30
306.039
 41
0.5
 42
0.5
 43
0.5
  0
INSERT
  5
       447
100
AcDbEntity
  8
OBS_MARKER
 62
     7
100
AcDbBlockReference
  2
P_Z
 10
415208.66
 20
381394.507
 30
305.336
 41
0.5
 42
0.5
 43
0.5
  0
INSERT
  5
       448
100
AcDbEntity
  8
OBS_MARKER
 62
     7
100
AcDbBlockReference
  2
P_Z
 10
415221.369
 20
381397.472
 30
305.219
 41
0.5
 42
0.5
 43
0.5
  0
INSERT
  5
       449
100
AcDbEntity
  8
OBS_MARKER
 62
     7
100
AcDbBlockReference
  2
P_Z
 10
415233.481
 20
381398.134
 30
304.049
 41
0.5
 42
0.5
 43
0.5
  0
INSERT
  5
       44A
100
AcDbEntity
  8
OBS_MARKER
 62
     7
100
AcDbBlockReference
  2
P_Z
 10
415242.286
 20
381394.042
 30
304.308
 41
0.5
 42
0.5
 43
0.5
  0
INSERT
  5
       44B
100
AcDbEntity
  8
OBS_MARKER
 62
     7
100
AcDbBlockReference
  2
P_Z
 10
415253.152
 20
381384.975
 30
304.03
 41
0.5
 42
0.5
 43
0.5
  0
INSERT
  5
       44C
100
AcDbEntity
  8
OBS_MARKER
 62
     7
100
AcDbBlockReference
  2
P_Z
 10
415274.484
 20
381360.288
 30
303.737
 41
0.5
 42
0.5
 43
0.5
  0
INSERT
  5
       44D
100
AcDbEntity
  8
OBS_MARKER
 62
     7
100
AcDbBlockReference
  2
P_Z
 10
415293.569
 20
381339.595
 30
303.929
 41
0.5
 42
0.5
 43
0.5
  0
INSERT
  5
       44E
100
AcDbEntity
  8
OBS_MARKER
 62
     7
100
AcDbBlockReference
  2
P_Z
 10
415370.646
 20
381308.877
 30
304.589
 41
0.5
 42
0.5
 43
0.5
  0
INSERT
  5
       44F
100
AcDbEntity
  8
OBS_MARKER
 62
     7
100
AcDbBlockReference
  2
P_Z
 10
415350.43
 20
381304.149
 30
306.996
 41
0.5
 42
0.5
 43
0.5
  0
INSERT
  5
       450
100
AcDbEntity
  8
OBS_MARKER
 62
     7
100
AcDbBlockReference
  2
P_Z
 10
415335.875
 20
381301.677
 30
309.023
 41
0.5
 42
0.5
 43
0.5
  0
INSERT
  5
       451
100
AcDbEntity
  8
OBS_MARKER
 62
     7
100
AcDbBlockReference
  2
P_Z
 10
415314.898
 20
381314.508
 30
309.611
 41
0.5
 42
0.5
 43
0.5
  0
INSERT
  5
       452
100
AcDbEntity
  8
OBS_MARKER
 62
     7
100
AcDbBlockReference
  2
P_Z
 10
415222.576
 20
381396.123
 30
309.013
 41
0.5
 42
0.5
 43
0.5
  0
INSERT
  5
       453
100
AcDbEntity
  8
OBS_MARKER
 62
     7
100
AcDbBlockReference
  2
P_Z
 10
415198.112
 20
381390.31
 30
310.131
 41
0.5
 42
0.5
 43
0.5
  0
INSERT
  5
       454
100
AcDbEntity
  8
OBS_MARKER
 62
     7
100
AcDbBlockReference
  2
P_Z
 10
415189.679
 20
381406.296
 30
310.329
 41
0.5
 42
0.5
 43
0.5
  0
INSERT
  5
       455
100
AcDbEntity
  8
OBS_MARKER
 62
     7
100
AcDbBlockReference
  2
P_Z
 10
415181.659
 20
381428.314
 30
310.464
 41
0.5
 42
0.5
 43
0.5
  0
INSERT
  5
       456
100
AcDbEntity
  8
OBS_MARKER
 62
     7
100
AcDbBlockReference
  2
P_Z
 10
415172.939
 20
381445.339
 30
311.184
 41
0.5
 42
0.5
 43
0.5
  0
INSERT
  5
       457
100
AcDbEntity
  8
OBS_MARKER
 62
     7
100
AcDbBlockReference
  2
P_Z
 10
415321.276
 20
381307.71
 30
309.611
 41
0.5
 42
0.5
 43
0.5
  0
INSERT
  5
       458
100
AcDbEntity
  8
OBS_MARKER
 62
     7
100
AcDbBlockReference
  2
P_Z
 10
415251.982
 20
381384.195
 30
307.594
 41
0.5
 42
0.5
 43
0.5
  0
INSERT
  5
       459
100
AcDbEntity
  8
OBS_MARKER
 62
     7
100
AcDbBlockReference
  2
P_Z
 10
415334.421
 20
381302.065
 30
304.337
 41
0.5
 42
0.5
 43
0.5
  0
INSERT
  5
       45A
100
AcDbEntity
  8
OBS_MARKER
 62
     7
100
AcDbBlockReference
  2
P_Z
 10
415413.714
 20
381402.92
 30
254.88
 41
0.5
 42
0.5
 43
0.5
  0
INSERT
  5
       45B
100
AcDbEntity
  8
OBS_MARKER
 62
     7
100
AcDbBlockReference
  2
P_Z
 10
415415.77
 20
381399.563
 30
265.197
 41
0.5
 42
0.5
 43
0.5
  0
INSERT
  5
       45C
100
AcDbEntity
  8
OBS_MARKER
 62
     7
100
AcDbBlockReference
  2
P_Z
 10
415415.779
 20
381399.521
 30
260.468
 41
0.5
 42
0.5
 43
0.5
  0
INSERT
  5
       45D
100
AcDbEntity
  8
OBS_MARKER
 62
     7
100
AcDbBlockReference
  2
P_Z
 10
415416.619
 20
381395.822
 30
270.377
 41
0.5
 42
0.5
 43
0.5
  0
INSERT
  5
       45E
100
AcDbEntity
  8
OBS_MARKER
 62
     7
100
AcDbBlockReference
  2
P_Z
 10
415430.651
 20
381362.1
 30
276.246
 41
0.5
 42
0.5
 43
0.5
  0
INSERT
  5
       45F
100
AcDbEntity
  8
OBS_MARKER
 62
     7
100
AcDbBlockReference
  2
P_Z
 10
415432.334
 20
381359.659
 30
285.701
 41
0.5
 42
0.5
 43
0.5
  0
INSERT
  5
       460
100
AcDbEntity
  8
OBS_MARKER
 62
     7
100
AcDbBlockReference
  2
P_Z
 10
415432.469
 20
381359.463
 30
285.433
 41
0.5
 42
0.5
 43
0.5
  0
INSERT
  5
       461
100
AcDbEntity
  8
OBS_MARKER
 62
     7
100
AcDbBlockReference
  2
P_Z
 10
415433.781
 20
381357.658
 30
293.068
 41
0.5
 42
0.5
 43
0.5
  0
INSERT
  5
       462
100
AcDbEntity
  8
OBS_MARKER
 62
     7
100
AcDbBlockReference
  2
P_Z
 10
415447.442
 20
381326.21
 30
301.896
 41
0.5
 42
0.5
 43
0.5
  0
INSERT
  5
       463
100
AcDbEntity
  8
OBS_MARKER
 62
     7
100
AcDbBlockReference
  2
P_Z
 10
415449.623
 20
381323.189
 30
306.522
 41
0.5
 42
0.5
 43
0.5
  0
INSERT
  5
       464
100
AcDbEntity
  8
OBS_MARKER
 62
     7
100
AcDbBlockReference
  2
P_Z
 10
415461.557
 20
381299.19
 30
316.095
 41
0.5
 42
0.5
 43
0.5
  0
INSERT
  5
       465
100
AcDbEntity
  8
OBS_MARKER
 62
     7
100
AcDbBlockReference
  2
P_Z
 10
415462.948
 20
381296.68
 30
320.602
 41
0.5
 42
0.5
 43
0.5
  0
TEXT
  5
       466
100
AcDbEntity
  8
LEVELS
 62
     7
100
AcDbText
 10
415234.728
 20
381338.736
 30
313.78
 40
1.2
  1
313.8
  7
FTRL
 50
0.0
 41
1.0
 72
     0
100
AcDbText
 73
     0
  0
INSERT
  5
       467
100
AcDbEntity
  8
LEVELS
 62
     7
100
AcDbBlockReference
  2
P_Z
 10
415230.728
 20
381339.306
 30
313.78
 41
0.5
 42
0.5
 43
0.5
  0
INSERT
  5
       468
100
AcDbEntity
  8
TEXT
100
AcDbBlockReference
  2
T_20141111164746_0000001
 10
415464.696
 20
381463.417
 30
250.712
  0
INSERT
  5
       469
100
AcDbEntity
  8
TEXT
100
AcDbBlockReference
  2
T_20141111164746_0000002
 10
415577.718
 20
381527.985
  0
INSERT
  5
       46A
100
AcDbEntity
  8
TEXT
100
AcDbBlockReference
  2
T_20141111164746_0000003
 10
415558.493
 20
381428.322
 30
243.497
  0
INSERT
  5
       46B
100
AcDbEntity
  8
TEXT
100
AcDbBlockReference
  2
T_20141111164746_0000004
 10
415378.086
 20
381405.625
 30
262.038
  0
INSERT
  5
       46C
100
AcDbEntity
  8
TEXT
100
AcDbBlockReference
  2
T_20141111164746_0000005
 10
415437.172
 20
381386.638
 30
267.09
  0
INSERT
  5
       46D
100
AcDbEntity
  8
TEXT
100
AcDbBlockReference
  2
T_20141111164746_0000006
 10
415015.067
 20
381468.911
  0
INSERT
  5
       46E
100
AcDbEntity
  8
TEXT
100
AcDbBlockReference
  2
T_20141111164746_0000007
 10
415312.309
 20
381384.882
 30
283.014
  0
INSERT
  5
       46F
100
AcDbEntity
  8
TEXT
100
AcDbBlockReference
  2
T_20141111164746_0000008
 10
415262.099
 20
381335.619
 30
313.458
  0
INSERT
  5
       470
100
AcDbEntity
  8
TEXT
100
AcDbBlockReference
  2
T_20141111164746_0000009
 10
415489.254
 20
381271.576
 30
322.837
  0
INSERT
  5
       471
100
AcDbEntity
  8
TEXT
100
AcDbBlockReference
  2
T_20141111164746_0000010
 10
415160.191
 20
381389.098
 30
317.155
  0
INSERT
  5
       472
100
AcDbEntity
  8
TEXT
100
AcDbBlockReference
  2
T_20141111164746_0000011
 10
415247.741
 20
381344.078
 30
311.081
  0
INSERT
  5
       473
100
AcDbEntity
  8
TEXT
100
AcDbBlockReference
  2
T_20141111164746_0000012
 10
415208.062
 20
381142.431
 30
366.43
  0
INSERT
  5
       474
100
AcDbEntity
  8
TEXT
100
AcDbBlockReference
  2
T_20141111164746_0000013
 10
415225.51
 20
381501.553
 30
298.886
  0
INSERT
  5
       475
100
AcDbEntity
  8
TEXT
100
AcDbBlockReference
  2
T_20141111164746_0000014
 10
415224.628
 20
381383.019
 30
310.069
  0
INSERT
  5
       476
100
AcDbEntity
  8
TEXT
100
AcDbBlockReference
  2
T_20141111164746_0000015
 10
415233.012
 20
381402.178
 30
302.672
  0
INSERT
  5
       477
100
AcDbEntity
  8
S_TAB
100
AcDbBlockReference
  2
STATIONS_TABLE_20141111164746
 10
416060.0
 20
381600.0
  0
INSERT
  5
       478
100
AcDbEntity
  8
Properties
100
AcDbBlockReference
  2
PROPERTIES_20141111164746
 10
415850.0
 20
381600.0
  0
ENDSEC
  0
SECTION
  2
OBJECTS
  0
DICTIONARY
  5
       479
100
AcDbDictionary
  3
ACAD_GROUP
350
       47A
  3
ACAD_LAYOUT
350
       47B
  3
ACAD_MLINESTYLE
350
       47C
  0
DICTIONARY
  5
       47A
102
{ACAD_REACTORS
330
       479
102
}
330
       479
100
AcDbDictionary
  0
DICTIONARY
  5
       47B
102
{ACAD_REACTORS
330
       479
102
}
330
       479
100
AcDbDictionary
  3
Layout1
350
       47E
  3
Model
350
       47F
  0
DICTIONARY
  5
       47C
102
{ACAD_REACTORS
330
       479
102
}
330
       479
100
AcDbDictionary
  3
STANDARD
350
       47D
  0
LAYOUT
  5
       47E
102
{ACAD_REACTORS
330
       47B
102
}
330
       47B
100
AcDbPlotSettings
 70
   688
100
AcDbLayout
  1
Layout1
330
        A7
  0
LAYOUT
  5
       47F
102
{ACAD_REACTORS
330
       47B
102
}
330
       47B
100
AcDbPlotSettings
 70
  1712
100
AcDbLayout
  1
Model
330
        A6
  0
MLINESTYLE
  5
       47D
102
{ACAD_REACTORS
330
       47C
102
}
330
       47C
100
AcDbMlineStyle
  2
STANDARD
 70
     0
  0
ENDSEC
  0
EOF
