  0
SECTION
  2
HEADER
  9
$ACADVER
  1
AC1009
  9
$UCSORG
  10
0.0
  20
0.0
  30
0.0
  9
$UCSXDIR
  10
1.0
  20
0.0
  30
0.0
  9
$TILEMODE
  70
1
  9
$UCSYDIR
  10
0.0
  20
1.0
  30
0.0
  9
$EXTMIN
  10
360501.877992
  20
310769.263272
  30
-218.845721
  9
$EXTMAX
  10
361831.791450
  20
312062.592652
  30
108.137697
  0
ENDSEC
0
SECTION
2
TABLES
0
TABLE
2
LAYER
70
10
0
LAYER
2
Surface
70
0
61
0
62
1
0
LAYER
2
Edges
70
0
61
0
62
1
0
LAYER
2
Structure
70
0
61
0
62
1
0
LAYER
2
Diagnostics
70
0
61
0
62
1
0
ENDTAB
  0
TABLE
  2
LTYPE
 70
     3
  0
LTYPE
  2
CONTINUOUS
 70
  0
  3
Solid Line
 72
    65
 73
     0
 40
0.0
  0
LTYPE
  2
DASHED
 70
     0
  3
_ _ _ _ _
 72
    65
 73
     2
 40
0.75
 49
0.5
 49
-0.25
  0
LTYPE
  2
DOT
 70
     0
  3
. . . . .
 72
    65
 73
     2
 40
1.0
 49
0.0
 49
-1.0
  0
ENDTAB
0
ENDSEC
0
SECTION
2
ENTITIES
0
POLYLINE
8
Structure
66
1
70
0
62
0
999
RGB=65280
0
VERTEX
8
Structure
10
360644.582080
20
311086.893088
30
-59.209276
0
VERTEX
8
Structure
10
360663.394612
20
311138.234217
30
-59.268472
0
SEQEND
0
POLYLINE
8
Structure
66
1
70
0
62
0
999
RGB=65280
0
VERTEX
8
Structure
10
360663.394612
20
311138.234217
30
-59.268472
0
VERTEX
8
Structure
10
360697.901391
20
311174.419588
30
-58.751973
0
SEQEND
0
POLYLINE
8
Structure
66
1
70
0
62
0
999
RGB=65280
0
VERTEX
8
Structure
10
360697.901391
20
311174.419588
30
-58.751973
0
VERTEX
8
Structure
10
360728.466582
20
311214.411305
30
-55.222146
0
SEQEND
0
POLYLINE
8
Structure
66
1
70
0
62
0
999
RGB=65280
0
VERTEX
8
Structure
10
360728.466582
20
311214.411305
30
-55.222146
0
VERTEX
8
Structure
10
360756.430859
20
311256.914696
30
-55.991883
0
SEQEND
0
POLYLINE
8
Structure
66
1
70
0
62
0
999
RGB=65280
0
VERTEX
8
Structure
10
360756.430859
20
311256.914696
30
-55.991883
0
VERTEX
8
Structure
10
360786.214111
20
311297.661525
30
-53.748294
0
SEQEND
0
POLYLINE
8
Structure
66
1
70
0
62
0
999
RGB=65280
0
VERTEX
8
Structure
10
360786.214111
20
311297.661525
30
-53.748294
0
VERTEX
8
Structure
10
360816.547765
20
311337.876835
30
-53.632345
0
SEQEND
0
POLYLINE
8
Structure
66
1
70
0
62
0
999
RGB=65280
0
VERTEX
8
Structure
10
360816.547765
20
311337.876835
30
-53.632345
0
VERTEX
8
Structure
10
360846.977079
20
311377.999767
30
-44.044145
0
SEQEND
0
POLYLINE
8
Structure
66
1
70
0
62
0
999
RGB=65280
0
VERTEX
8
Structure
10
360846.977079
20
311377.999767
30
-44.044145
0
VERTEX
8
Structure
10
360884.761288
20
311411.020161
30
-52.924888
0
SEQEND
0
POLYLINE
8
Structure
66
1
70
0
62
0
999
RGB=65280
0
VERTEX
8
Structure
10
360884.761288
20
311411.020161
30
-52.924888
0
VERTEX
8
Structure
10
360923.087569
20
311443.517081
30
-43.470537
0
SEQEND
0
POLYLINE
8
Structure
66
1
70
0
62
0
999
RGB=65280
0
VERTEX
8
Structure
10
360923.087569
20
311443.517081
30
-43.470537
0
VERTEX
8
Structure
10
360966.359152
20
311471.238379
30
-41.538930
0
SEQEND
0
POLYLINE
8
Structure
66
1
70
0
62
0
999
RGB=65280
0
VERTEX
8
Structure
10
360966.359152
20
311471.238379
30
-41.538930
0
VERTEX
8
Structure
10
361003.631739
20
311504.752840
30
-43.141488
0
SEQEND
0
POLYLINE
8
Structure
66
1
70
0
62
0
999
RGB=65280
0
VERTEX
8
Structure
10
361003.631739
20
311504.752840
30
-43.141488
0
VERTEX
8
Structure
10
361041.901144
20
311537.304685
30
-46.184284
0
SEQEND
0
POLYLINE
8
Structure
66
1
70
0
62
0
999
RGB=65280
0
VERTEX
8
Structure
10
361041.901144
20
311537.304685
30
-46.184284
0
VERTEX
8
Structure
10
361082.411661
20
311567.692313
30
-39.168560
0
SEQEND
0
POLYLINE
8
Structure
66
1
70
0
62
0
999
RGB=65280
0
VERTEX
8
Structure
10
361082.411661
20
311567.692313
30
-39.168560
0
VERTEX
8
Structure
10
361120.393369
20
311600.521984
30
-34.944741
0
SEQEND
0
POLYLINE
8
Structure
66
1
70
0
62
0
999
RGB=65280
0
VERTEX
8
Structure
10
361120.393369
20
311600.521984
30
-34.944741
0
VERTEX
8
Structure
10
361160.648076
20
311631.156645
30
-32.028305
0
SEQEND
0
POLYLINE
8
Structure
66
1
70
0
62
0
999
RGB=65280
0
VERTEX
8
Structure
10
361160.648076
20
311631.156645
30
-32.028305
0
VERTEX
8
Structure
10
361198.796830
20
311663.825001
30
-33.243873
0
SEQEND
0
POLYLINE
8
Structure
66
1
70
0
62
0
999
RGB=65280
0
VERTEX
8
Structure
10
361198.796830
20
311663.825001
30
-33.243873
0
VERTEX
8
Structure
10
361240.606371
20
311692.958177
30
-27.890804
0
SEQEND
0
POLYLINE
8
Structure
66
1
70
0
62
0
999
RGB=65280
0
VERTEX
8
Structure
10
361240.606371
20
311692.958177
30
-27.890804
0
VERTEX
8
Structure
10
361286.315847
20
311718.325229
30
-21.153351
0
SEQEND
0
POLYLINE
8
Structure
66
1
70
0
62
0
999
RGB=65280
0
VERTEX
8
Structure
10
361286.315847
20
311718.325229
30
-21.153351
0
VERTEX
8
Structure
10
361319.087277
20
311756.186406
30
-22.579985
0
SEQEND
0
POLYLINE
8
Structure
66
1
70
0
62
0
999
RGB=65280
0
VERTEX
8
Structure
10
361319.087277
20
311756.186406
30
-22.579985
0
VERTEX
8
Structure
10
361370.360779
20
311776.180340
30
-21.993347
0
SEQEND
0
POLYLINE
8
Structure
66
1
70
0
62
0
999
RGB=65280
0
VERTEX
8
Structure
10
361370.360779
20
311776.180340
30
-21.993347
0
VERTEX
8
Structure
10
361417.983898
20
311799.699410
30
-17.201467
0
SEQEND
0
POLYLINE
8
Structure
66
1
70
0
62
0
999
RGB=65280
0
VERTEX
8
Structure
10
361417.983898
20
311799.699410
30
-17.201467
0
VERTEX
8
Structure
10
361464.196350
20
311824.580743
30
-15.042735
0
SEQEND
0
POLYLINE
8
Structure
66
1
70
0
62
0
999
RGB=65280
0
VERTEX
8
Structure
10
361464.196350
20
311824.580743
30
-15.042735
0
VERTEX
8
Structure
10
361516.055292
20
311844.009325
30
-11.631642
0
SEQEND
0
POLYLINE
8
Structure
66
1
70
0
62
0
999
RGB=65280
0
VERTEX
8
Structure
10
361516.055292
20
311844.009325
30
-11.631642
0
VERTEX
8
Structure
10
361562.676531
20
311868.495897
30
-10.297484
0
SEQEND
0
POLYLINE
8
Structure
66
1
70
0
62
0
999
RGB=65280
0
VERTEX
8
Structure
10
361562.676531
20
311868.495897
30
-10.297484
0
VERTEX
8
Structure
10
361615.527147
20
311886.966830
30
-6.667627
0
SEQEND
0
POLYLINE
8
Structure
66
1
70
0
62
0
999
RGB=65280
0
VERTEX
8
Structure
10
361615.527147
20
311886.966830
30
-6.667627
0
VERTEX
8
Structure
10
361662.877954
20
311910.748868
30
-5.424694
0
SEQEND
0
POLYLINE
8
Structure
66
1
70
0
62
0
999
RGB=65280
0
VERTEX
8
Structure
10
361662.877954
20
311910.748868
30
-5.424694
0
VERTEX
8
Structure
10
361701.686961
20
311942.779623
30
-4.371299
0
SEQEND
0
POLYLINE
8
Structure
66
1
70
0
62
0
999
RGB=65280
0
VERTEX
8
Structure
10
361701.686961
20
311942.779623
30
-4.371299
0
VERTEX
8
Structure
10
361737.547730
20
311977.657462
30
1.007790
0
SEQEND
0
POLYLINE
8
Structure
66
1
70
0
62
0
999
RGB=65280
0
VERTEX
8
Structure
10
361737.547730
20
311977.657462
30
1.007790
0
VERTEX
8
Structure
10
361774.510501
20
312011.471108
30
2.314492
0
SEQEND
0
POLYLINE
8
Structure
66
1
70
0
62
0
999
RGB=65280
0
VERTEX
8
Structure
10
361774.510501
20
312011.471108
30
2.314492
0
VERTEX
8
Structure
10
361812.670936
20
312044.128186
30
7.469503
0
SEQEND
0
POLYLINE
8
Structure
66
1
70
0
62
0
999
RGB=65280
0
VERTEX
8
Structure
10
360640.332881
20
311021.488319
30
-54.203318
0
VERTEX
8
Structure
10
360644.582080
20
311086.893088
30
-59.209276
0
SEQEND
0
POLYLINE
8
Structure
66
1
70
0
62
0
999
RGB=65280
0
VERTEX
8
Structure
10
360621.265773
20
310970.393031
30
-46.760460
0
VERTEX
8
Structure
10
360640.332881
20
311021.488319
30
-54.203318
0
SEQEND
0
POLYLINE
8
Structure
66
1
70
0
62
0
999
RGB=65280
0
VERTEX
8
Structure
10
360605.536695
20
310916.074246
30
-40.572480
0
VERTEX
8
Structure
10
360621.265773
20
310970.393031
30
-46.760460
0
SEQEND
0
POLYLINE
8
Structure
66
1
70
0
62
0
999
RGB=65280
0
VERTEX
8
Structure
10
360600.746417
20
310851.191984
30
-35.506526
0
VERTEX
8
Structure
10
360605.536695
20
310916.074246
30
-40.572480
0
SEQEND
0
POLYLINE
8
Structure
66
1
70
0
62
0
999
RGB=65280
0
VERTEX
8
Structure
10
360587.999580
20
310793.993283
30
-27.657651
0
VERTEX
8
Structure
10
360600.746417
20
310851.191984
30
-35.506526
0
SEQEND
0
POLYLINE
8
Edges
66
1
70
0
62
0
999
RGB=255
0
VERTEX
8
Edges
10
360817.207889
20
310989.698462
30
-57.573103
0
VERTEX
8
Edges
10
360781.812587
20
310954.371128
30
-60.295238
0
SEQEND
0
POLYLINE
8
Edges
66
1
70
0
62
0
999
RGB=255
0
VERTEX
8
Edges
10
360658.511651
20
311142.949638
30
-214.112249
0
VERTEX
8
Edges
10
360639.108499
20
311092.178864
30
-218.302740
0
SEQEND
0
POLYLINE
8
Edges
66
1
70
0
62
0
999
RGB=255
0
VERTEX
8
Edges
10
360721.990146
20
311081.649167
30
97.270674
0
VERTEX
8
Edges
10
360713.783788
20
311020.065775
30
100.427169
0
SEQEND
0
POLYLINE
8
Edges
66
1
70
0
62
0
999
RGB=255
0
VERTEX
8
Edges
10
360509.581335
20
311286.769972
30
89.358949
0
VERTEX
8
Edges
10
360505.005753
20
311221.680380
30
88.481585
0
SEQEND
0
POLYLINE
8
Edges
66
1
70
0
62
0
999
RGB=255
0
VERTEX
8
Edges
10
360507.139855
20
311289.127682
30
-63.224335
0
VERTEX
8
Edges
10
360503.441872
20
311223.190601
30
-64.639087
0
SEQEND
0
POLYLINE
8
Edges
66
1
70
0
62
0
999
RGB=255
0
VERTEX
8
Edges
10
360595.846982
20
311203.464204
30
90.489195
0
VERTEX
8
Edges
10
360609.394771
20
311120.873078
30
94.454377
0
SEQEND
0
POLYLINE
8
Edges
66
1
70
0
62
0
999
RGB=255
0
VERTEX
8
Edges
10
360721.990146
20
311081.649167
30
97.270674
0
VERTEX
8
Edges
10
360609.394771
20
311120.873078
30
94.454377
0
SEQEND
0
POLYLINE
8
Edges
66
1
70
0
62
0
999
RGB=255
0
VERTEX
8
Edges
10
360721.990146
20
311081.649167
30
97.270674
0
VERTEX
8
Edges
10
360787.286168
20
310949.085352
30
98.255244
0
SEQEND
0
POLYLINE
8
Edges
66
1
70
0
62
0
999
RGB=255
0
VERTEX
8
Edges
10
360812.324928
20
310994.413883
30
-212.416880
0
VERTEX
8
Edges
10
360781.812587
20
310954.371128
30
-60.295238
0
SEQEND
0
POLYLINE
8
Edges
66
1
70
0
62
0
999
RGB=255
0
VERTEX
8
Edges
10
360507.139855
20
311289.127682
30
-63.224335
0
VERTEX
8
Edges
10
360505.005753
20
311221.680380
30
88.481585
0
SEQEND
0
POLYLINE
8
Edges
66
1
70
0
62
0
999
RGB=255
0
VERTEX
8
Edges
10
360504.698374
20
311291.485393
30
-215.807619
0
VERTEX
8
Edges
10
360503.441872
20
311223.190601
30
-64.639087
0
SEQEND
0
POLYLINE
8
Edges
66
1
70
0
62
0
999
RGB=255
0
VERTEX
8
Edges
10
360822.090850
20
310984.983041
30
97.270674
0
VERTEX
8
Edges
10
360781.812587
20
310954.371128
30
-60.295238
0
SEQEND
0
POLYLINE
8
Edges
66
1
70
0
62
0
999
RGB=255
0
VERTEX
8
Edges
10
360658.511651
20
311142.949638
30
-214.112249
0
VERTEX
8
Edges
10
360501.877992
20
311224.700823
30
-217.759759
0
SEQEND
0
POLYLINE
8
Edges
66
1
70
0
62
0
999
RGB=255
0
VERTEX
8
Edges
10
360658.511651
20
311142.949638
30
-214.112249
0
VERTEX
8
Edges
10
360776.339005
20
310959.656905
30
-218.845721
0
SEQEND
0
POLYLINE
8
Edges
66
1
70
0
62
0
999
RGB=255
0
VERTEX
8
Edges
10
360822.090850
20
310984.983041
30
97.270674
0
VERTEX
8
Edges
10
360787.286168
20
310949.085352
30
98.255244
0
SEQEND
0
POLYLINE
8
Edges
66
1
70
0
62
0
999
RGB=255
0
VERTEX
8
Edges
10
360812.324928
20
310994.413883
30
-212.416880
0
VERTEX
8
Edges
10
360776.339005
20
310959.656905
30
-218.845721
0
SEQEND
0
POLYLINE
8
Edges
66
1
70
0
62
0
999
RGB=255
0
VERTEX
8
Edges
10
360504.698374
20
311291.485393
30
-215.807619
0
VERTEX
8
Edges
10
360501.877992
20
311224.700823
30
-217.759759
0
SEQEND
0
POLYLINE
8
Edges
66
1
70
0
62
0
999
RGB=255
0
VERTEX
8
Edges
10
360595.846982
20
311203.464204
30
90.489195
0
VERTEX
8
Edges
10
360505.005753
20
311221.680380
30
88.481585
0
SEQEND
0
3DFACE
8
Surface
62
0
999
RGB=16756059
10
360595.846982
20
311203.464204
30
90.489195
11
360505.005753
21
311221.680380
31
88.481585
12
360509.581335
22
311286.769972
32
89.358949
13
360509.581335
23
311286.769972
33
89.358949
0
3DFACE
8
Surface
62
0
999
RGB=16756059
10
360721.990146
20
311081.649167
30
97.270674
11
360609.394771
21
311120.873078
31
94.454377
12
360595.846982
22
311203.464204
32
90.489195
13
360595.846982
23
311203.464204
33
90.489195
0
3DFACE
8
Surface
62
0
999
RGB=16756059
10
360822.090850
20
310984.983041
30
97.270674
11
360787.286168
21
310949.085352
31
98.255244
12
360721.990146
22
311081.649167
32
97.270674
13
360721.990146
23
311081.649167
33
97.270674
0
3DFACE
8
Surface
62
0
999
RGB=16756059
10
360817.207889
20
310989.698462
30
-57.573103
11
360781.812587
21
310954.371128
31
-60.295238
12
360822.090850
22
310984.983041
32
97.270674
13
360822.090850
23
310984.983041
33
97.270674
0
3DFACE
8
Surface
62
0
999
RGB=16756059
10
360812.324928
20
310994.413883
30
-212.416880
11
360781.812587
21
310954.371128
31
-60.295238
12
360817.207889
22
310989.698462
32
-57.573103
13
360817.207889
23
310989.698462
33
-57.573103
0
3DFACE
8
Surface
62
0
999
RGB=16756059
10
360658.511651
20
311142.949638
30
-214.112249
11
360776.339005
21
310959.656905
31
-218.845721
12
360812.324928
22
310994.413883
32
-212.416880
13
360812.324928
23
310994.413883
33
-212.416880
0
3DFACE
8
Surface
62
0
999
RGB=16756059
10
360504.698374
20
311291.485393
30
-215.807619
11
360501.877992
21
311224.700823
31
-217.759759
12
360658.511651
22
311142.949638
32
-214.112249
13
360658.511651
23
311142.949638
33
-214.112249
0
3DFACE
8
Surface
62
0
999
RGB=16756059
10
360507.139855
20
311289.127682
30
-63.224335
11
360503.441872
21
311223.190601
31
-64.639087
12
360504.698374
22
311291.485393
32
-215.807619
13
360504.698374
23
311291.485393
33
-215.807619
0
3DFACE
8
Surface
62
0
999
RGB=16756059
10
360509.581335
20
311286.769972
30
89.358949
11
360505.005753
21
311221.680380
31
88.481585
12
360507.139855
22
311289.127682
32
-63.224335
13
360507.139855
23
311289.127682
33
-63.224335
0
3DFACE
8
Surface
62
0
999
RGB=16756059
10
360505.005753
20
311221.680380
30
88.481585
11
360595.846982
21
311203.464204
31
90.489195
12
360609.394771
22
311120.873078
32
94.454377
13
360609.394771
23
311120.873078
33
94.454377
0
3DFACE
8
Surface
62
0
999
RGB=16756059
10
360609.394771
20
311120.873078
30
94.454377
11
360721.990146
21
311081.649167
31
97.270674
12
360713.783788
22
311020.065775
32
100.427169
13
360713.783788
23
311020.065775
33
100.427169
0
3DFACE
8
Surface
62
0
999
RGB=16756059
10
360713.783788
20
311020.065775
30
100.427169
11
360721.990146
21
311081.649167
31
97.270674
12
360787.286168
22
310949.085352
32
98.255244
13
360787.286168
23
310949.085352
33
98.255244
0
3DFACE
8
Surface
62
0
999
RGB=16756059
10
360787.286168
20
310949.085352
30
98.255244
11
360822.090850
21
310984.983041
31
97.270674
12
360781.812587
22
310954.371128
32
-60.295238
13
360781.812587
23
310954.371128
33
-60.295238
0
3DFACE
8
Surface
62
0
999
RGB=16756059
10
360781.812587
20
310954.371128
30
-60.295238
11
360812.324928
21
310994.413883
31
-212.416880
12
360776.339005
22
310959.656905
32
-218.845721
13
360776.339005
23
310959.656905
33
-218.845721
0
3DFACE
8
Surface
62
0
999
RGB=16756059
10
360776.339005
20
310959.656905
30
-218.845721
11
360658.511651
21
311142.949638
31
-214.112249
12
360639.108499
22
311092.178864
32
-218.302740
13
360639.108499
23
311092.178864
33
-218.302740
0
3DFACE
8
Surface
62
0
999
RGB=16756059
10
360639.108499
20
311092.178864
30
-218.302740
11
360658.511651
21
311142.949638
31
-214.112249
12
360501.877992
22
311224.700823
32
-217.759759
13
360501.877992
23
311224.700823
33
-217.759759
0
3DFACE
8
Surface
62
0
999
RGB=16756059
10
360501.877992
20
311224.700823
30
-217.759759
11
360504.698374
21
311291.485393
31
-215.807619
12
360503.441872
22
311223.190601
32
-64.639087
13
360503.441872
23
311223.190601
33
-64.639087
0
3DFACE
8
Surface
62
0
999
RGB=16756059
10
360503.441872
20
311223.190601
30
-64.639087
11
360507.139855
21
311289.127682
31
-63.224335
12
360505.005753
22
311221.680380
32
88.481585
13
360505.005753
23
311221.680380
33
88.481585
0
POLYLINE
8
Edges
66
1
70
0
62
0
999
RGB=255
0
VERTEX
8
Edges
10
360850.975538
20
311026.597602
30
-54.641114
0
VERTEX
8
Edges
10
360817.207889
20
310989.698462
30
-57.573103
0
SEQEND
0
POLYLINE
8
Edges
66
1
70
0
62
0
999
RGB=255
0
VERTEX
8
Edges
10
360693.249966
20
311178.911416
30
-212.028253
0
VERTEX
8
Edges
10
360658.511651
20
311142.949638
30
-214.112249
0
SEQEND
0
POLYLINE
8
Edges
66
1
70
0
62
0
999
RGB=255
0
VERTEX
8
Edges
10
360540.175820
20
311326.733401
30
-65.211892
0
VERTEX
8
Edges
10
360507.139855
20
311289.127682
30
-63.224335
0
SEQEND
0
POLYLINE
8
Edges
66
1
70
0
62
0
999
RGB=255
0
VERTEX
8
Edges
10
360697.901391
20
311174.419588
30
92.175247
0
VERTEX
8
Edges
10
360721.990146
20
311081.649167
30
97.270674
0
SEQEND
0
POLYLINE
8
Edges
66
1
70
0
62
0
999
RGB=255
0
VERTEX
8
Edges
10
360697.901391
20
311174.419588
30
92.175247
0
VERTEX
8
Edges
10
360595.846982
20
311203.464204
30
90.489195
0
SEQEND
0
POLYLINE
8
Edges
66
1
70
0
62
0
999
RGB=255
0
VERTEX
8
Edges
10
360540.175820
20
311326.733401
30
-65.211892
0
VERTEX
8
Edges
10
360504.698374
20
311291.485393
30
-215.807619
0
SEQEND
0
POLYLINE
8
Edges
66
1
70
0
62
0
999
RGB=255
0
VERTEX
8
Edges
10
360845.901257
20
311031.497779
30
-207.917395
0
VERTEX
8
Edges
10
360817.207889
20
310989.698462
30
-57.573103
0
SEQEND
0
POLYLINE
8
Edges
66
1
70
0
62
0
999
RGB=255
0
VERTEX
8
Edges
10
360856.049819
20
311021.697426
30
98.635166
0
VERTEX
8
Edges
10
360817.207889
20
310989.698462
30
-57.573103
0
SEQEND
0
POLYLINE
8
Edges
66
1
70
0
62
0
999
RGB=255
0
VERTEX
8
Edges
10
360697.901391
20
311174.419588
30
92.175247
0
VERTEX
8
Edges
10
360509.581335
20
311286.769972
30
89.358949
0
SEQEND
0
POLYLINE
8
Edges
66
1
70
0
62
0
999
RGB=255
0
VERTEX
8
Edges
10
360540.598676
20
311326.325053
30
-216.139111
0
VERTEX
8
Edges
10
360658.511651
20
311142.949638
30
-214.112249
0
SEQEND
0
POLYLINE
8
Edges
66
1
70
0
62
0
999
RGB=255
0
VERTEX
8
Edges
10
360697.901391
20
311174.419588
30
92.175247
0
VERTEX
8
Edges
10
360822.090850
20
310984.983041
30
97.270674
0
SEQEND
0
POLYLINE
8
Edges
66
1
70
0
62
0
999
RGB=255
0
VERTEX
8
Edges
10
360856.049819
20
311021.697426
30
98.635166
0
VERTEX
8
Edges
10
360822.090850
20
310984.983041
30
97.270674
0
SEQEND
0
POLYLINE
8
Edges
66
1
70
0
62
0
999
RGB=255
0
VERTEX
8
Edges
10
360845.901257
20
311031.497779
30
-207.917395
0
VERTEX
8
Edges
10
360812.324928
20
310994.413883
30
-212.416880
0
SEQEND
0
POLYLINE
8
Edges
66
1
70
0
62
0
999
RGB=255
0
VERTEX
8
Edges
10
360540.598676
20
311326.325053
30
-216.139111
0
VERTEX
8
Edges
10
360504.698374
20
311291.485393
30
-215.807619
0
SEQEND
0
POLYLINE
8
Edges
66
1
70
0
62
0
999
RGB=255
0
VERTEX
8
Edges
10
360539.752963
20
311327.141749
30
85.715327
0
VERTEX
8
Edges
10
360509.581335
20
311286.769972
30
89.358949
0
SEQEND
0
POLYLINE
8
Edges
66
1
70
0
62
0
999
RGB=255
0
VERTEX
8
Edges
10
360539.752963
20
311327.141749
30
85.715327
0
VERTEX
8
Edges
10
360507.139855
20
311289.127682
30
-63.224335
0
SEQEND
0
POLYLINE
8
Edges
66
1
70
0
62
0
999
RGB=255
0
VERTEX
8
Edges
10
360693.249966
20
311178.911416
30
-212.028253
0
VERTEX
8
Edges
10
360812.324928
20
310994.413883
30
-212.416880
0
SEQEND
0
3DFACE
8
Surface
62
0
999
RGB=16756059
10
360697.901391
20
311174.419588
30
92.175247
11
360509.581335
21
311286.769972
31
89.358949
12
360539.752963
22
311327.141749
32
85.715327
13
360539.752963
23
311327.141749
33
85.715327
0
3DFACE
8
Surface
62
0
999
RGB=16756059
10
360856.049819
20
311021.697426
30
98.635166
11
360822.090850
21
310984.983041
31
97.270674
12
360697.901391
22
311174.419588
32
92.175247
13
360697.901391
23
311174.419588
33
92.175247
0
3DFACE
8
Surface
62
0
999
RGB=16756059
10
360850.975538
20
311026.597602
30
-54.641114
11
360817.207889
21
310989.698462
31
-57.573103
12
360856.049819
22
311021.697426
32
98.635166
13
360856.049819
23
311021.697426
33
98.635166
0
3DFACE
8
Surface
62
0
999
RGB=16756059
10
360845.901257
20
311031.497779
30
-207.917395
11
360817.207889
21
310989.698462
31
-57.573103
12
360850.975538
22
311026.597602
32
-54.641114
13
360850.975538
23
311026.597602
33
-54.641114
0
3DFACE
8
Surface
62
0
999
RGB=16756059
10
360693.249966
20
311178.911416
30
-212.028253
11
360812.324928
21
310994.413883
31
-212.416880
12
360845.901257
22
311031.497779
32
-207.917395
13
360845.901257
23
311031.497779
33
-207.917395
0
3DFACE
8
Surface
62
0
999
RGB=16756059
10
360540.598676
20
311326.325053
30
-216.139111
11
360658.511651
21
311142.949638
31
-214.112249
12
360693.249966
22
311178.911416
32
-212.028253
13
360693.249966
23
311178.911416
33
-212.028253
0
3DFACE
8
Surface
62
0
999
RGB=16756059
10
360540.175820
20
311326.733401
30
-65.211892
11
360504.698374
21
311291.485393
31
-215.807619
12
360540.598676
22
311326.325053
32
-216.139111
13
360540.598676
23
311326.325053
33
-216.139111
0
3DFACE
8
Surface
62
0
999
RGB=16756059
10
360539.752963
20
311327.141749
30
85.715327
11
360507.139855
21
311289.127682
31
-63.224335
12
360540.175820
22
311326.733401
32
-65.211892
13
360540.175820
23
311326.733401
33
-65.211892
0
3DFACE
8
Surface
62
0
999
RGB=16756059
10
360509.581335
20
311286.769972
30
89.358949
11
360697.901391
21
311174.419588
31
92.175247
12
360595.846982
22
311203.464204
32
90.489195
13
360595.846982
23
311203.464204
33
90.489195
0
3DFACE
8
Surface
62
0
999
RGB=16756059
10
360595.846982
20
311203.464204
30
90.489195
11
360697.901391
21
311174.419588
31
92.175247
12
360721.990146
22
311081.649167
32
97.270674
13
360721.990146
23
311081.649167
33
97.270674
0
3DFACE
8
Surface
62
0
999
RGB=16756059
10
360721.990146
20
311081.649167
30
97.270674
11
360697.901391
21
311174.419588
31
92.175247
12
360822.090850
22
310984.983041
32
97.270674
13
360822.090850
23
310984.983041
33
97.270674
0
3DFACE
8
Surface
62
0
999
RGB=16756059
10
360822.090850
20
310984.983041
30
97.270674
11
360856.049819
21
311021.697426
31
98.635166
12
360817.207889
22
310989.698462
32
-57.573103
13
360817.207889
23
310989.698462
33
-57.573103
0
3DFACE
8
Surface
62
0
999
RGB=16756059
10
360817.207889
20
310989.698462
30
-57.573103
11
360845.901257
21
311031.497779
31
-207.917395
12
360812.324928
22
310994.413883
32
-212.416880
13
360812.324928
23
310994.413883
33
-212.416880
0
3DFACE
8
Surface
62
0
999
RGB=16756059
10
360812.324928
20
310994.413883
30
-212.416880
11
360693.249966
21
311178.911416
31
-212.028253
12
360658.511651
22
311142.949638
32
-214.112249
13
360658.511651
23
311142.949638
33
-214.112249
0
3DFACE
8
Surface
62
0
999
RGB=16756059
10
360658.511651
20
311142.949638
30
-214.112249
11
360540.598676
21
311326.325053
31
-216.139111
12
360504.698374
22
311291.485393
32
-215.807619
13
360504.698374
23
311291.485393
33
-215.807619
0
3DFACE
8
Surface
62
0
999
RGB=16756059
10
360504.698374
20
311291.485393
30
-215.807619
11
360540.175820
21
311326.733401
31
-65.211892
12
360507.139855
22
311289.127682
32
-63.224335
13
360507.139855
23
311289.127682
33
-63.224335
0
3DFACE
8
Surface
62
0
999
RGB=16756059
10
360507.139855
20
311289.127682
30
-63.224335
11
360539.752963
21
311327.141749
31
85.715327
12
360509.581335
22
311286.769972
32
89.358949
13
360509.581335
23
311286.769972
33
89.358949
0
POLYLINE
8
Edges
66
1
70
0
62
0
999
RGB=255
0
VERTEX
8
Edges
10
360886.434614
20
311061.863351
30
-54.003330
0
VERTEX
8
Edges
10
360850.975538
20
311026.597602
30
-54.641114
0
SEQEND
0
POLYLINE
8
Edges
66
1
70
0
62
0
999
RGB=255
0
VERTEX
8
Edges
10
360723.639781
20
311219.072493
30
-205.745825
0
VERTEX
8
Edges
10
360693.249966
20
311178.911416
30
-212.028253
0
SEQEND
0
POLYLINE
8
Edges
66
1
70
0
62
0
999
RGB=255
0
VERTEX
8
Edges
10
360565.232949
20
311372.044192
30
87.988643
0
VERTEX
8
Edges
10
360539.752963
20
311327.141749
30
85.715327
0
SEQEND
0
POLYLINE
8
Edges
66
1
70
0
62
0
999
RGB=255
0
VERTEX
8
Edges
10
360565.671749
20
311371.620448
30
-59.487999
0
VERTEX
8
Edges
10
360540.175820
20
311326.733401
30
-65.211892
0
SEQEND
0
POLYLINE
8
Edges
66
1
70
0
62
0
999
RGB=255
0
VERTEX
8
Edges
10
360721.445781
20
311221.191214
30
90.426274
0
VERTEX
8
Edges
10
360697.901391
20
311174.419588
30
92.175247
0
SEQEND
0
POLYLINE
8
Edges
66
1
70
0
62
0
999
RGB=255
0
VERTEX
8
Edges
10
360566.110550
20
311371.196703
30
-206.964641
0
VERTEX
8
Edges
10
360540.175820
20
311326.733401
30
-65.211892
0
SEQEND
0
POLYLINE
8
Edges
66
1
70
0
62
0
999
RGB=255
0
VERTEX
8
Edges
10
360565.671749
20
311371.620448
30
-59.487999
0
VERTEX
8
Edges
10
360539.752963
20
311327.141749
30
85.715327
0
SEQEND
0
POLYLINE
8
Edges
66
1
70
0
62
0
999
RGB=255
0
VERTEX
8
Edges
10
360881.169012
20
311066.948282
30
-204.527010
0
VERTEX
8
Edges
10
360850.975538
20
311026.597602
30
-54.641114
0
SEQEND
0
POLYLINE
8
Edges
66
1
70
0
62
0
999
RGB=255
0
VERTEX
8
Edges
10
360891.700215
20
311056.778419
30
96.520350
0
VERTEX
8
Edges
10
360850.975538
20
311026.597602
30
-54.641114
0
SEQEND
0
POLYLINE
8
Edges
66
1
70
0
62
0
999
RGB=255
0
VERTEX
8
Edges
10
360723.639781
20
311219.072493
30
-205.745825
0
VERTEX
8
Edges
10
360540.598676
20
311326.325053
30
-216.139111
0
SEQEND
0
POLYLINE
8
Edges
66
1
70
0
62
0
999
RGB=255
0
VERTEX
8
Edges
10
360723.639781
20
311219.072493
30
-205.745825
0
VERTEX
8
Edges
10
360845.901257
20
311031.497779
30
-207.917395
0
SEQEND
0
POLYLINE
8
Edges
66
1
70
0
62
0
999
RGB=255
0
VERTEX
8
Edges
10
360721.445781
20
311221.191214
30
90.426274
0
VERTEX
8
Edges
10
360856.049819
20
311021.697426
30
98.635166
0
SEQEND
0
POLYLINE
8
Edges
66
1
70
0
62
0
999
RGB=255
0
VERTEX
8
Edges
10
360881.169012
20
311066.948282
30
-204.527010
0
VERTEX
8
Edges
10
360845.901257
20
311031.497779
30
-207.917395
0
SEQEND
0
POLYLINE
8
Edges
66
1
70
0
62
0
999
RGB=255
0
VERTEX
8
Edges
10
360891.700215
20
311056.778419
30
96.520350
0
VERTEX
8
Edges
10
360856.049819
20
311021.697426
30
98.635166
0
SEQEND
0
POLYLINE
8
Edges
66
1
70
0
62
0
999
RGB=255
0
VERTEX
8
Edges
10
360566.110550
20
311371.196703
30
-206.964641
0
VERTEX
8
Edges
10
360540.598676
20
311326.325053
30
-216.139111
0
SEQEND
0
POLYLINE
8
Edges
66
1
70
0
62
0
999
RGB=255
0
VERTEX
8
Edges
10
360721.445781
20
311221.191214
30
90.426274
0
VERTEX
8
Edges
10
360539.752963
20
311327.141749
30
85.715327
0
SEQEND
0
3DFACE
8
Surface
62
0
999
RGB=16756059
10
360721.445781
20
311221.191214
30
90.426274
11
360539.752963
21
311327.141749
31
85.715327
12
360565.232949
22
311372.044192
32
87.988643
13
360565.232949
23
311372.044192
33
87.988643
0
3DFACE
8
Surface
62
0
999
RGB=16756059
10
360891.700215
20
311056.778419
30
96.520350
11
360856.049819
21
311021.697426
31
98.635166
12
360721.445781
22
311221.191214
32
90.426274
13
360721.445781
23
311221.191214
33
90.426274
0
3DFACE
8
Surface
62
0
999
RGB=16756059
10
360886.434614
20
311061.863351
30
-54.003330
11
360850.975538
21
311026.597602
31
-54.641114
12
360891.700215
22
311056.778419
32
96.520350
13
360891.700215
23
311056.778419
33
96.520350
0
3DFACE
8
Surface
62
0
999
RGB=16756059
10
360881.169012
20
311066.948282
30
-204.527010
11
360850.975538
21
311026.597602
31
-54.641114
12
360886.434614
22
311061.863351
32
-54.003330
13
360886.434614
23
311061.863351
33
-54.003330
0
3DFACE
8
Surface
62
0
999
RGB=16756059
10
360723.639781
20
311219.072493
30
-205.745825
11
360845.901257
21
311031.497779
31
-207.917395
12
360881.169012
22
311066.948282
32
-204.527010
13
360881.169012
23
311066.948282
33
-204.527010
0
3DFACE
8
Surface
62
0
999
RGB=16756059
10
360566.110550
20
311371.196703
30
-206.964641
11
360540.598676
21
311326.325053
31
-216.139111
12
360723.639781
22
311219.072493
32
-205.745825
13
360723.639781
23
311219.072493
33
-205.745825
0
3DFACE
8
Surface
62
0
999
RGB=16756059
10
360565.671749
20
311371.620448
30
-59.487999
11
360540.175820
21
311326.733401
31
-65.211892
12
360566.110550
22
311371.196703
32
-206.964641
13
360566.110550
23
311371.196703
33
-206.964641
0
3DFACE
8
Surface
62
0
999
RGB=16756059
10
360565.232949
20
311372.044192
30
87.988643
11
360539.752963
21
311327.141749
31
85.715327
12
360565.671749
22
311371.620448
32
-59.487999
13
360565.671749
23
311371.620448
33
-59.487999
0
3DFACE
8
Surface
62
0
999
RGB=16756059
10
360539.752963
20
311327.141749
30
85.715327
11
360721.445781
21
311221.191214
31
90.426274
12
360697.901391
22
311174.419588
32
92.175247
13
360697.901391
23
311174.419588
33
92.175247
0
3DFACE
8
Surface
62
0
999
RGB=16756059
10
360697.901391
20
311174.419588
30
92.175247
11
360721.445781
21
311221.191214
31
90.426274
12
360856.049819
22
311021.697426
32
98.635166
13
360856.049819
23
311021.697426
33
98.635166
0
3DFACE
8
Surface
62
0
999
RGB=16756059
10
360856.049819
20
311021.697426
30
98.635166
11
360891.700215
21
311056.778419
31
96.520350
12
360850.975538
22
311026.597602
32
-54.641114
13
360850.975538
23
311026.597602
33
-54.641114
0
3DFACE
8
Surface
62
0
999
RGB=16756059
10
360850.975538
20
311026.597602
30
-54.641114
11
360881.169012
21
311066.948282
31
-204.527010
12
360845.901257
22
311031.497779
32
-207.917395
13
360845.901257
23
311031.497779
33
-207.917395
0
3DFACE
8
Surface
62
0
999
RGB=16756059
10
360845.901257
20
311031.497779
30
-207.917395
11
360723.639781
21
311219.072493
31
-205.745825
12
360693.249966
22
311178.911416
32
-212.028253
13
360693.249966
23
311178.911416
33
-212.028253
0
3DFACE
8
Surface
62
0
999
RGB=16756059
10
360693.249966
20
311178.911416
30
-212.028253
11
360723.639781
21
311219.072493
31
-205.745825
12
360540.598676
22
311326.325053
32
-216.139111
13
360540.598676
23
311326.325053
33
-216.139111
0
3DFACE
8
Surface
62
0
999
RGB=16756059
10
360540.598676
20
311326.325053
30
-216.139111
11
360566.110550
21
311371.196703
31
-206.964641
12
360540.175820
22
311326.733401
32
-65.211892
13
360540.175820
23
311326.733401
33
-65.211892
0
3DFACE
8
Surface
62
0
999
RGB=16756059
10
360540.175820
20
311326.733401
30
-65.211892
11
360565.671749
21
311371.620448
31
-59.487999
12
360539.752963
22
311327.141749
32
85.715327
13
360539.752963
23
311327.141749
33
85.715327
0
POLYLINE
8
Edges
66
1
70
0
62
0
999
RGB=255
0
VERTEX
8
Edges
10
360920.593233
20
311098.384935
30
-51.571035
0
VERTEX
8
Edges
10
360886.434614
20
311061.863351
30
-54.003330
0
SEQEND
0
POLYLINE
8
Edges
66
1
70
0
62
0
999
RGB=255
0
VERTEX
8
Edges
10
360750.519195
20
311262.623524
30
-201.879883
0
VERTEX
8
Edges
10
360723.639781
20
311219.072493
30
-205.745825
0
SEQEND
0
POLYLINE
8
Edges
66
1
70
0
62
0
999
RGB=255
0
VERTEX
8
Edges
10
360745.971761
20
311267.014931
30
88.001467
0
VERTEX
8
Edges
10
360721.445781
20
311221.191214
30
90.426274
0
SEQEND
0
POLYLINE
8
Edges
66
1
70
0
62
0
999
RGB=255
0
VERTEX
8
Edges
10
360586.811565
20
311420.714144
30
-62.307381
0
VERTEX
8
Edges
10
360565.671749
20
311371.620448
30
-59.487999
0
SEQEND
0
POLYLINE
8
Edges
66
1
70
0
62
0
999
RGB=255
0
VERTEX
8
Edges
10
360904.677213
20
311113.754857
30
94.316965
0
VERTEX
8
Edges
10
360891.700215
20
311056.778419
30
96.520350
0
SEQEND
0
POLYLINE
8
Edges
66
1
70
0
62
0
999
RGB=255
0
VERTEX
8
Edges
10
360587.266309
20
311420.275004
30
81.685969
0
VERTEX
8
Edges
10
360565.671749
20
311371.620448
30
-59.487999
0
SEQEND
0
POLYLINE
8
Edges
66
1
70
0
62
0
999
RGB=255
0
VERTEX
8
Edges
10
360914.681568
20
311104.093763
30
-197.459034
0
VERTEX
8
Edges
10
360886.434614
20
311061.863351
30
-54.003330
0
SEQEND
0
POLYLINE
8
Edges
66
1
70
0
62
0
999
RGB=255
0
VERTEX
8
Edges
10
360586.356822
20
311421.153285
30
-206.300731
0
VERTEX
8
Edges
10
360565.671749
20
311371.620448
30
-59.487999
0
SEQEND
0
POLYLINE
8
Edges
66
1
70
0
62
0
999
RGB=255
0
VERTEX
8
Edges
10
360926.504897
20
311092.676108
30
94.316965
0
VERTEX
8
Edges
10
360886.434614
20
311061.863351
30
-54.003330
0
SEQEND
0
POLYLINE
8
Edges
66
1
70
0
62
0
999
RGB=255
0
VERTEX
8
Edges
10
360904.677213
20
311113.754857
30
94.316965
0
VERTEX
8
Edges
10
360721.445781
20
311221.191214
30
90.426274
0
SEQEND
0
POLYLINE
8
Edges
66
1
70
0
62
0
999
RGB=255
0
VERTEX
8
Edges
10
360745.971761
20
311267.014931
30
88.001467
0
VERTEX
8
Edges
10
360565.232949
20
311372.044192
30
87.988643
0
SEQEND
0
POLYLINE
8
Edges
66
1
70
0
62
0
999
RGB=255
0
VERTEX
8
Edges
10
360750.519195
20
311262.623524
30
-201.879883
0
VERTEX
8
Edges
10
360881.169012
20
311066.948282
30
-204.527010
0
SEQEND
0
POLYLINE
8
Edges
66
1
70
0
62
0
999
RGB=255
0
VERTEX
8
Edges
10
360750.519195
20
311262.623524
30
-201.879883
0
VERTEX
8
Edges
10
360566.110550
20
311371.196703
30
-206.964641
0
SEQEND
0
POLYLINE
8
Edges
66
1
70
0
62
0
999
RGB=255
0
VERTEX
8
Edges
10
360926.504897
20
311092.676108
30
94.316965
0
VERTEX
8
Edges
10
360891.700215
20
311056.778419
30
96.520350
0
SEQEND
0
POLYLINE
8
Edges
66
1
70
0
62
0
999
RGB=255
0
VERTEX
8
Edges
10
360914.681568
20
311104.093763
30
-197.459034
0
VERTEX
8
Edges
10
360881.169012
20
311066.948282
30
-204.527010
0
SEQEND
0
POLYLINE
8
Edges
66
1
70
0
62
0
999
RGB=255
0
VERTEX
8
Edges
10
360587.266309
20
311420.275004
30
81.685969
0
VERTEX
8
Edges
10
360565.232949
20
311372.044192
30
87.988643
0
SEQEND
0
POLYLINE
8
Edges
66
1
70
0
62
0
999
RGB=255
0
VERTEX
8
Edges
10
360586.356822
20
311421.153285
30
-206.300731
0
VERTEX
8
Edges
10
360566.110550
20
311371.196703
30
-206.964641
0
SEQEND
0
3DFACE
8
Surface
62
0
999
RGB=16756059
10
360745.971761
20
311267.014931
30
88.001467
11
360565.232949
21
311372.044192
31
87.988643
12
360587.266309
22
311420.275004
32
81.685969
13
360587.266309
23
311420.275004
33
81.685969
0
3DFACE
8
Surface
62
0
999
RGB=16756059
10
360904.677213
20
311113.754857
30
94.316965
11
360721.445781
21
311221.191214
31
90.426274
12
360745.971761
22
311267.014931
32
88.001467
13
360745.971761
23
311267.014931
33
88.001467
0
3DFACE
8
Surface
62
0
999
RGB=16756059
10
360926.504897
20
311092.676108
30
94.316965
11
360891.700215
21
311056.778419
31
96.520350
12
360904.677213
22
311113.754857
32
94.316965
13
360904.677213
23
311113.754857
33
94.316965
0
3DFACE
8
Surface
62
0
999
RGB=16756059
10
360920.593233
20
311098.384935
30
-51.571035
11
360886.434614
21
311061.863351
31
-54.003330
12
360926.504897
22
311092.676108
32
94.316965
13
360926.504897
23
311092.676108
33
94.316965
0
3DFACE
8
Surface
62
0
999
RGB=16756059
10
360914.681568
20
311104.093763
30
-197.459034
11
360886.434614
21
311061.863351
31
-54.003330
12
360920.593233
22
311098.384935
32
-51.571035
13
360920.593233
23
311098.384935
33
-51.571035
0
3DFACE
8
Surface
62
0
999
RGB=16756059
10
360750.519195
20
311262.623524
30
-201.879883
11
360881.169012
21
311066.948282
31
-204.527010
12
360914.681568
22
311104.093763
32
-197.459034
13
360914.681568
23
311104.093763
33
-197.459034
0
3DFACE
8
Surface
62
0
999
RGB=16756059
10
360586.356822
20
311421.153285
30
-206.300731
11
360566.110550
21
311371.196703
31
-206.964641
12
360750.519195
22
311262.623524
32
-201.879883
13
360750.519195
23
311262.623524
33
-201.879883
0
3DFACE
8
Surface
62
0
999
RGB=16756059
10
360586.811565
20
311420.714144
30
-62.307381
11
360565.671749
21
311371.620448
31
-59.487999
12
360586.356822
22
311421.153285
32
-206.300731
13
360586.356822
23
311421.153285
33
-206.300731
0
3DFACE
8
Surface
62
0
999
RGB=16756059
10
360587.266309
20
311420.275004
30
81.685969
11
360565.671749
21
311371.620448
31
-59.487999
12
360586.811565
22
311420.714144
32
-62.307381
13
360586.811565
23
311420.714144
33
-62.307381
0
3DFACE
8
Surface
62
0
999
RGB=16756059
10
360565.232949
20
311372.044192
30
87.988643
11
360745.971761
21
311267.014931
31
88.001467
12
360721.445781
22
311221.191214
32
90.426274
13
360721.445781
23
311221.191214
33
90.426274
0
3DFACE
8
Surface
62
0
999
RGB=16756059
10
360721.445781
20
311221.191214
30
90.426274
11
360904.677213
21
311113.754857
31
94.316965
12
360891.700215
22
311056.778419
32
96.520350
13
360891.700215
23
311056.778419
33
96.520350
0
3DFACE
8
Surface
62
0
999
RGB=16756059
10
360891.700215
20
311056.778419
30
96.520350
11
360926.504897
21
311092.676108
31
94.316965
12
360886.434614
22
311061.863351
32
-54.003330
13
360886.434614
23
311061.863351
33
-54.003330
0
3DFACE
8
Surface
62
0
999
RGB=16756059
10
360886.434614
20
311061.863351
30
-54.003330
11
360914.681568
21
311104.093763
31
-197.459034
12
360881.169012
22
311066.948282
32
-204.527010
13
360881.169012
23
311066.948282
33
-204.527010
0
3DFACE
8
Surface
62
0
999
RGB=16756059
10
360881.169012
20
311066.948282
30
-204.527010
11
360750.519195
21
311262.623524
31
-201.879883
12
360723.639781
22
311219.072493
32
-205.745825
13
360723.639781
23
311219.072493
33
-205.745825
0
3DFACE
8
Surface
62
0
999
RGB=16756059
10
360723.639781
20
311219.072493
30
-205.745825
11
360750.519195
21
311262.623524
31
-201.879883
12
360566.110550
22
311371.196703
32
-206.964641
13
360566.110550
23
311371.196703
33
-206.964641
0
3DFACE
8
Surface
62
0
999
RGB=16756059
10
360566.110550
20
311371.196703
30
-206.964641
11
360586.356822
21
311421.153285
31
-206.300731
12
360565.671749
22
311371.620448
32
-59.487999
13
360565.671749
23
311371.620448
33
-59.487999
0
3DFACE
8
Surface
62
0
999
RGB=16756059
10
360565.671749
20
311371.620448
30
-59.487999
11
360587.266309
21
311420.275004
31
81.685969
12
360565.232949
22
311372.044192
32
87.988643
13
360565.232949
23
311372.044192
33
87.988643
0
POLYLINE
8
Edges
66
1
70
0
62
0
999
RGB=255
0
VERTEX
8
Edges
10
360956.132025
20
311133.573702
30
-49.172450
0
VERTEX
8
Edges
10
360920.593233
20
311098.384935
30
-51.571035
0
SEQEND
0
POLYLINE
8
Edges
66
1
70
0
62
0
999
RGB=255
0
VERTEX
8
Edges
10
360781.977929
20
311301.752357
30
-197.560522
0
VERTEX
8
Edges
10
360750.519195
20
311262.623524
30
-201.879883
0
SEQEND
0
POLYLINE
8
Edges
66
1
70
0
62
0
999
RGB=255
0
VERTEX
8
Edges
10
360613.942762
20
311464.022032
30
82.873323
0
VERTEX
8
Edges
10
360587.266309
20
311420.275004
30
81.685969
0
SEQEND
0
POLYLINE
8
Edges
66
1
70
0
62
0
999
RGB=255
0
VERTEX
8
Edges
10
360613.001388
20
311464.931106
30
-59.631522
0
VERTEX
8
Edges
10
360586.811565
20
311420.714144
30
-62.307381
0
SEQEND
0
POLYLINE
8
Edges
66
1
70
0
62
0
999
RGB=255
0
VERTEX
8
Edges
10
360722.200713
20
311359.478544
30
86.141783
0
VERTEX
8
Edges
10
360745.971761
20
311267.014931
30
88.001467
0
SEQEND
0
POLYLINE
8
Edges
66
1
70
0
62
0
999
RGB=255
0
VERTEX
8
Edges
10
360830.458664
20
311254.935056
30
89.410243
0
VERTEX
8
Edges
10
360904.677213
20
311113.754857
30
94.316965
0
SEQEND
0
POLYLINE
8
Edges
66
1
70
0
62
0
999
RGB=255
0
VERTEX
8
Edges
10
360951.895844
20
311137.664534
30
-192.984679
0
VERTEX
8
Edges
10
360920.593233
20
311098.384935
30
-51.571035
0
SEQEND
0
POLYLINE
8
Edges
66
1
70
0
62
0
999
RGB=255
0
VERTEX
8
Edges
10
360722.200713
20
311359.478544
30
86.141783
0
VERTEX
8
Edges
10
360587.266309
20
311420.275004
30
81.685969
0
SEQEND
0
POLYLINE
8
Edges
66
1
70
0
62
0
999
RGB=255
0
VERTEX
8
Edges
10
360613.001388
20
311464.931106
30
-59.631522
0
VERTEX
8
Edges
10
360587.266309
20
311420.275004
30
81.685969
0
SEQEND
0
POLYLINE
8
Edges
66
1
70
0
62
0
999
RGB=255
0
VERTEX
8
Edges
10
360612.060015
20
311465.840180
30
-202.136366
0
VERTEX
8
Edges
10
360586.811565
20
311420.714144
30
-62.307381
0
SEQEND
0
POLYLINE
8
Edges
66
1
70
0
62
0
999
RGB=255
0
VERTEX
8
Edges
10
360781.977929
20
311301.752357
30
-197.560522
0
VERTEX
8
Edges
10
360914.681568
20
311104.093763
30
-197.459034
0
SEQEND
0
POLYLINE
8
Edges
66
1
70
0
62
0
999
RGB=255
0
VERTEX
8
Edges
10
360781.977929
20
311301.752357
30
-197.560522
0
VERTEX
8
Edges
10
360586.356822
20
311421.153285
30
-206.300731
0
SEQEND
0
POLYLINE
8
Edges
66
1
70
0
62
0
999
RGB=255
0
VERTEX
8
Edges
10
360960.368206
20
311129.482870
30
94.639778
0
VERTEX
8
Edges
10
360926.504897
20
311092.676108
30
94.316965
0
SEQEND
0
POLYLINE
8
Edges
66
1
70
0
62
0
999
RGB=255
0
VERTEX
8
Edges
10
360951.895844
20
311137.664534
30
-192.984679
0
VERTEX
8
Edges
10
360914.681568
20
311104.093763
30
-197.459034
0
SEQEND
0
POLYLINE
8
Edges
66
1
70
0
62
0
999
RGB=255
0
VERTEX
8
Edges
10
360612.060015
20
311465.840180
30
-202.136366
0
VERTEX
8
Edges
10
360586.356822
20
311421.153285
30
-206.300731
0
SEQEND
0
POLYLINE
8
Edges
66
1
70
0
62
0
999
RGB=255
0
VERTEX
8
Edges
10
360960.368206
20
311129.482870
30
94.639778
0
VERTEX
8
Edges
10
360904.677213
20
311113.754857
30
94.316965
0
SEQEND
0
POLYLINE
8
Edges
66
1
70
0
62
0
999
RGB=255
0
VERTEX
8
Edges
10
360830.458664
20
311254.935056
30
89.410243
0
VERTEX
8
Edges
10
360745.971761
20
311267.014931
30
88.001467
0
SEQEND
0
POLYLINE
8
Edges
66
1
70
0
62
0
999
RGB=255
0
VERTEX
8
Edges
10
360956.132025
20
311133.573702
30
-49.172450
0
VERTEX
8
Edges
10
360926.504897
20
311092.676108
30
94.316965
0
SEQEND
0
3DFACE
8
Surface
62
0
999
RGB=16756059
10
360722.200713
20
311359.478544
30
86.141783
11
360587.266309
21
311420.275004
31
81.685969
12
360613.942762
22
311464.022032
32
82.873323
13
360613.942762
23
311464.022032
33
82.873323
0
3DFACE
8
Surface
62
0
999
RGB=16756059
10
360830.458664
20
311254.935056
30
89.410243
11
360745.971761
21
311267.014931
31
88.001467
12
360722.200713
22
311359.478544
32
86.141783
13
360722.200713
23
311359.478544
33
86.141783
0
3DFACE
8
Surface
62
0
999
RGB=16756059
10
360960.368206
20
311129.482870
30
94.639778
11
360904.677213
21
311113.754857
31
94.316965
12
360830.458664
22
311254.935056
32
89.410243
13
360830.458664
23
311254.935056
33
89.410243
0
3DFACE
8
Surface
62
0
999
RGB=16756059
10
360956.132025
20
311133.573702
30
-49.172450
11
360926.504897
21
311092.676108
31
94.316965
12
360960.368206
22
311129.482870
32
94.639778
13
360960.368206
23
311129.482870
33
94.639778
0
3DFACE
8
Surface
62
0
999
RGB=16756059
10
360951.895844
20
311137.664534
30
-192.984679
11
360920.593233
21
311098.384935
31
-51.571035
12
360956.132025
22
311133.573702
32
-49.172450
13
360956.132025
23
311133.573702
33
-49.172450
0
3DFACE
8
Surface
62
0
999
RGB=16756059
10
360781.977929
20
311301.752357
30
-197.560522
11
360914.681568
21
311104.093763
31
-197.459034
12
360951.895844
22
311137.664534
32
-192.984679
13
360951.895844
23
311137.664534
33
-192.984679
0
3DFACE
8
Surface
62
0
999
RGB=16756059
10
360612.060015
20
311465.840180
30
-202.136366
11
360586.356822
21
311421.153285
31
-206.300731
12
360781.977929
22
311301.752357
32
-197.560522
13
360781.977929
23
311301.752357
33
-197.560522
0
3DFACE
8
Surface
62
0
999
RGB=16756059
10
360613.001388
20
311464.931106
30
-59.631522
11
360586.811565
21
311420.714144
31
-62.307381
12
360612.060015
22
311465.840180
32
-202.136366
13
360612.060015
23
311465.840180
33
-202.136366
0
3DFACE
8
Surface
62
0
999
RGB=16756059
10
360613.942762
20
311464.022032
30
82.873323
11
360587.266309
21
311420.275004
31
81.685969
12
360613.001388
22
311464.931106
32
-59.631522
13
360613.001388
23
311464.931106
33
-59.631522
0
3DFACE
8
Surface
62
0
999
RGB=16756059
10
360587.266309
20
311420.275004
30
81.685969
11
360722.200713
21
311359.478544
31
86.141783
12
360745.971761
22
311267.014931
32
88.001467
13
360745.971761
23
311267.014931
33
88.001467
0
3DFACE
8
Surface
62
0
999
RGB=16756059
10
360745.971761
20
311267.014931
30
88.001467
11
360830.458664
21
311254.935056
31
89.410243
12
360904.677213
22
311113.754857
32
94.316965
13
360904.677213
23
311113.754857
33
94.316965
0
3DFACE
8
Surface
62
0
999
RGB=16756059
10
360904.677213
20
311113.754857
30
94.316965
11
360960.368206
21
311129.482870
31
94.639778
12
360926.504897
22
311092.676108
32
94.316965
13
360926.504897
23
311092.676108
33
94.316965
0
3DFACE
8
Surface
62
0
999
RGB=16756059
10
360926.504897
20
311092.676108
30
94.316965
11
360956.132025
21
311133.573702
31
-49.172450
12
360920.593233
22
311098.384935
32
-51.571035
13
360920.593233
23
311098.384935
33
-51.571035
0
3DFACE
8
Surface
62
0
999
RGB=16756059
10
360920.593233
20
311098.384935
30
-51.571035
11
360951.895844
21
311137.664534
31
-192.984679
12
360914.681568
22
311104.093763
32
-197.459034
13
360914.681568
23
311104.093763
33
-197.459034
0
3DFACE
8
Surface
62
0
999
RGB=16756059
10
360914.681568
20
311104.093763
30
-197.459034
11
360781.977929
21
311301.752357
31
-197.560522
12
360750.519195
22
311262.623524
32
-201.879883
13
360750.519195
23
311262.623524
33
-201.879883
0
3DFACE
8
Surface
62
0
999
RGB=16756059
10
360750.519195
20
311262.623524
30
-201.879883
11
360781.977929
21
311301.752357
31
-197.560522
12
360586.356822
22
311421.153285
32
-206.300731
13
360586.356822
23
311421.153285
33
-206.300731
0
3DFACE
8
Surface
62
0
999
RGB=16756059
10
360586.356822
20
311421.153285
30
-206.300731
11
360612.060015
21
311465.840180
31
-202.136366
12
360586.811565
22
311420.714144
32
-62.307381
13
360586.811565
23
311420.714144
33
-62.307381
0
3DFACE
8
Surface
62
0
999
RGB=16756059
10
360586.811565
20
311420.714144
30
-62.307381
11
360613.001388
21
311464.931106
31
-59.631522
12
360587.266309
22
311420.275004
32
81.685969
13
360587.266309
23
311420.275004
33
81.685969
0
POLYLINE
8
Edges
66
1
70
0
62
0
999
RGB=255
0
VERTEX
8
Edges
10
360811.194834
20
311343.046100
30
-193.530007
0
VERTEX
8
Edges
10
360781.977929
20
311301.752357
30
-197.560522
0
SEQEND
0
POLYLINE
8
Edges
66
1
70
0
62
0
999
RGB=255
0
VERTEX
8
Edges
10
360637.954529
20
311510.342319
30
-58.363184
0
VERTEX
8
Edges
10
360613.001388
20
311464.931106
30
-59.631522
0
SEQEND
0
POLYLINE
8
Edges
66
1
70
0
62
0
999
RGB=255
0
VERTEX
8
Edges
10
360817.521025
20
311336.936969
30
87.616986
0
VERTEX
8
Edges
10
360830.458664
20
311254.935056
30
89.410243
0
SEQEND
0
POLYLINE
8
Edges
66
1
70
0
62
0
999
RGB=255
0
VERTEX
8
Edges
10
360817.521025
20
311336.936969
30
87.616986
0
VERTEX
8
Edges
10
360722.200713
20
311359.478544
30
86.141783
0
SEQEND
0
POLYLINE
8
Edges
66
1
70
0
62
0
999
RGB=255
0
VERTEX
8
Edges
10
360985.408400
20
311174.810015
30
-187.447500
0
VERTEX
8
Edges
10
360956.132025
20
311133.573702
30
-49.172450
0
SEQEND
0
POLYLINE
8
Edges
66
1
70
0
62
0
999
RGB=255
0
VERTEX
8
Edges
10
360638.927789
20
311509.402452
30
82.886147
0
VERTEX
8
Edges
10
360613.001388
20
311464.931106
30
-59.631522
0
SEQEND
0
POLYLINE
8
Edges
66
1
70
0
62
0
999
RGB=255
0
VERTEX
8
Edges
10
360636.981269
20
311511.282185
30
-199.612514
0
VERTEX
8
Edges
10
360613.001388
20
311464.931106
30
-59.631522
0
SEQEND
0
POLYLINE
8
Edges
66
1
70
0
62
0
999
RGB=255
0
VERTEX
8
Edges
10
360996.114261
20
311164.471485
30
92.347825
0
VERTEX
8
Edges
10
360956.132025
20
311133.573702
30
-49.172450
0
SEQEND
0
POLYLINE
8
Edges
66
1
70
0
62
0
999
RGB=255
0
VERTEX
8
Edges
10
360811.194834
20
311343.046100
30
-193.530007
0
VERTEX
8
Edges
10
360951.895844
20
311137.664534
30
-192.984679
0
SEQEND
0
POLYLINE
8
Edges
66
1
70
0
62
0
999
RGB=255
0
VERTEX
8
Edges
10
360817.521025
20
311336.936969
30
87.616986
0
VERTEX
8
Edges
10
360613.942762
20
311464.022032
30
82.873323
0
SEQEND
0
POLYLINE
8
Edges
66
1
70
0
62
0
999
RGB=255
0
VERTEX
8
Edges
10
360811.194834
20
311343.046100
30
-193.530007
0
VERTEX
8
Edges
10
360612.060015
20
311465.840180
30
-202.136366
0
SEQEND
0
POLYLINE
8
Edges
66
1
70
0
62
0
999
RGB=255
0
VERTEX
8
Edges
10
360817.521025
20
311336.936969
30
87.616986
0
VERTEX
8
Edges
10
360960.368206
20
311129.482870
30
94.639778
0
SEQEND
0
POLYLINE
8
Edges
66
1
70
0
62
0
999
RGB=255
0
VERTEX
8
Edges
10
360985.408400
20
311174.810015
30
-187.447500
0
VERTEX
8
Edges
10
360951.895844
20
311137.664534
30
-192.984679
0
SEQEND
0
POLYLINE
8
Edges
66
1
70
0
62
0
999
RGB=255
0
VERTEX
8
Edges
10
360996.114261
20
311164.471485
30
92.347825
0
VERTEX
8
Edges
10
360960.368206
20
311129.482870
30
94.639778
0
SEQEND
0
POLYLINE
8
Edges
66
1
70
0
62
0
999
RGB=255
0
VERTEX
8
Edges
10
360638.927789
20
311509.402452
30
82.886147
0
VERTEX
8
Edges
10
360613.942762
20
311464.022032
30
82.873323
0
SEQEND
0
POLYLINE
8
Edges
66
1
70
0
62
0
999
RGB=255
0
VERTEX
8
Edges
10
360636.981269
20
311511.282185
30
-199.612514
0
VERTEX
8
Edges
10
360612.060015
20
311465.840180
30
-202.136366
0
SEQEND
0
3DFACE
8
Surface
62
0
999
RGB=16756059
10
360817.521025
20
311336.936969
30
87.616986
11
360613.942762
21
311464.022032
31
82.873323
12
360638.927789
22
311509.402452
32
82.886147
13
360638.927789
23
311509.402452
33
82.886147
0
3DFACE
8
Surface
62
0
999
RGB=16756059
10
360996.114261
20
311164.471485
30
92.347825
11
360960.368206
21
311129.482870
31
94.639778
12
360817.521025
22
311336.936969
32
87.616986
13
360817.521025
23
311336.936969
33
87.616986
0
3DFACE
8
Surface
62
0
999
RGB=16756059
10
360985.408400
20
311174.810015
30
-187.447500
11
360956.132025
21
311133.573702
31
-49.172450
12
360996.114261
22
311164.471485
32
92.347825
13
360996.114261
23
311164.471485
33
92.347825
0
3DFACE
8
Surface
62
0
999
RGB=16756059
10
360811.194834
20
311343.046100
30
-193.530007
11
360951.895844
21
311137.664534
31
-192.984679
12
360985.408400
22
311174.810015
32
-187.447500
13
360985.408400
23
311174.810015
33
-187.447500
0
3DFACE
8
Surface
62
0
999
RGB=16756059
10
360636.981269
20
311511.282185
30
-199.612514
11
360612.060015
21
311465.840180
31
-202.136366
12
360811.194834
22
311343.046100
32
-193.530007
13
360811.194834
23
311343.046100
33
-193.530007
0
3DFACE
8
Surface
62
0
999
RGB=16756059
10
360637.954529
20
311510.342319
30
-58.363184
11
360613.001388
21
311464.931106
31
-59.631522
12
360636.981269
22
311511.282185
32
-199.612514
13
360636.981269
23
311511.282185
33
-199.612514
0
3DFACE
8
Surface
62
0
999
RGB=16756059
10
360638.927789
20
311509.402452
30
82.886147
11
360613.001388
21
311464.931106
31
-59.631522
12
360637.954529
22
311510.342319
32
-58.363184
13
360637.954529
23
311510.342319
33
-58.363184
0
3DFACE
8
Surface
62
0
999
RGB=16756059
10
360613.942762
20
311464.022032
30
82.873323
11
360817.521025
21
311336.936969
31
87.616986
12
360722.200713
22
311359.478544
32
86.141783
13
360722.200713
23
311359.478544
33
86.141783
0
3DFACE
8
Surface
62
0
999
RGB=16756059
10
360722.200713
20
311359.478544
30
86.141783
11
360817.521025
21
311336.936969
31
87.616986
12
360830.458664
22
311254.935056
32
89.410243
13
360830.458664
23
311254.935056
33
89.410243
0
3DFACE
8
Surface
62
0
999
RGB=16756059
10
360830.458664
20
311254.935056
30
89.410243
11
360817.521025
21
311336.936969
31
87.616986
12
360960.368206
22
311129.482870
32
94.639778
13
360960.368206
23
311129.482870
33
94.639778
0
3DFACE
8
Surface
62
0
999
RGB=16756059
10
360960.368206
20
311129.482870
30
94.639778
11
360996.114261
21
311164.471485
31
92.347825
12
360956.132025
22
311133.573702
32
-49.172450
13
360956.132025
23
311133.573702
33
-49.172450
0
3DFACE
8
Surface
62
0
999
RGB=16756059
10
360956.132025
20
311133.573702
30
-49.172450
11
360985.408400
21
311174.810015
31
-187.447500
12
360951.895844
22
311137.664534
32
-192.984679
13
360951.895844
23
311137.664534
33
-192.984679
0
3DFACE
8
Surface
62
0
999
RGB=16756059
10
360951.895844
20
311137.664534
30
-192.984679
11
360811.194834
21
311343.046100
31
-193.530007
12
360781.977929
22
311301.752357
32
-197.560522
13
360781.977929
23
311301.752357
33
-197.560522
0
3DFACE
8
Surface
62
0
999
RGB=16756059
10
360781.977929
20
311301.752357
30
-197.560522
11
360811.194834
21
311343.046100
31
-193.530007
12
360612.060015
22
311465.840180
32
-202.136366
13
360612.060015
23
311465.840180
33
-202.136366
0
3DFACE
8
Surface
62
0
999
RGB=16756059
10
360612.060015
20
311465.840180
30
-202.136366
11
360636.981269
21
311511.282185
31
-199.612514
12
360613.001388
22
311464.931106
32
-59.631522
13
360613.001388
23
311464.931106
33
-59.631522
0
3DFACE
8
Surface
62
0
999
RGB=16756059
10
360613.001388
20
311464.931106
30
-59.631522
11
360638.927789
21
311509.402452
31
82.886147
12
360613.942762
22
311464.022032
32
82.873323
13
360613.942762
23
311464.022032
33
82.873323
0
POLYLINE
8
Edges
66
1
70
0
62
0
999
RGB=255
0
VERTEX
8
Edges
10
360846.977079
20
311377.999767
30
85.779444
0
VERTEX
8
Edges
10
360817.521025
20
311336.936969
30
87.616986
0
SEQEND
0
POLYLINE
8
Edges
66
1
70
0
62
0
999
RGB=255
0
VERTEX
8
Edges
10
360841.448772
20
311383.338392
30
-181.545473
0
VERTEX
8
Edges
10
360811.194834
20
311343.046100
30
-193.530007
0
SEQEND
0
POLYLINE
8
Edges
66
1
70
0
62
0
999
RGB=255
0
VERTEX
8
Edges
10
360663.035215
20
311555.630361
30
-182.243449
0
VERTEX
8
Edges
10
360637.954529
20
311510.342319
30
-58.363184
0
SEQEND
0
POLYLINE
8
Edges
66
1
70
0
62
0
999
RGB=255
0
VERTEX
8
Edges
10
360663.035215
20
311555.630361
30
77.403729
0
VERTEX
8
Edges
10
360637.954529
20
311510.342319
30
-58.363184
0
SEQEND
0
POLYLINE
8
Edges
66
1
70
0
62
0
999
RGB=255
0
VERTEX
8
Edges
10
360846.977079
20
311377.999767
30
85.779444
0
VERTEX
8
Edges
10
360638.927789
20
311509.402452
30
82.886147
0
SEQEND
0
POLYLINE
8
Edges
66
1
70
0
62
0
999
RGB=255
0
VERTEX
8
Edges
10
360841.448772
20
311383.338392
30
-181.545473
0
VERTEX
8
Edges
10
360636.981269
20
311511.282185
30
-199.612514
0
SEQEND
0
POLYLINE
8
Edges
66
1
70
0
62
0
999
RGB=255
0
VERTEX
8
Edges
10
360841.448772
20
311383.338392
30
-181.545473
0
VERTEX
8
Edges
10
360985.408400
20
311174.810015
30
-187.447500
0
SEQEND
0
POLYLINE
8
Edges
66
1
70
0
62
0
999
RGB=255
0
VERTEX
8
Edges
10
360846.977079
20
311377.999767
30
85.779444
0
VERTEX
8
Edges
10
360996.114261
20
311164.471485
30
92.347825
0
SEQEND
0
POLYLINE
8
Edges
66
1
70
0
62
0
999
RGB=255
0
VERTEX
8
Edges
10
361030.918944
20
311200.369174
30
94.155160
0
VERTEX
8
Edges
10
360996.114261
20
311164.471485
30
92.347825
0
SEQEND
0
POLYLINE
8
Edges
66
1
70
0
62
0
999
RGB=255
0
VERTEX
8
Edges
10
361019.862329
20
311211.046423
30
-180.847497
0
VERTEX
8
Edges
10
360985.408400
20
311174.810015
30
-187.447500
0
SEQEND
0
POLYLINE
8
Edges
66
1
70
0
62
0
999
RGB=255
0
VERTEX
8
Edges
10
360663.035215
20
311555.630361
30
77.403729
0
VERTEX
8
Edges
10
360638.927789
20
311509.402452
30
82.886147
0
SEQEND
0
POLYLINE
8
Edges
66
1
70
0
62
0
999
RGB=255
0
VERTEX
8
Edges
10
360663.035215
20
311555.630361
30
-182.243449
0
VERTEX
8
Edges
10
360636.981269
20
311511.282185
30
-199.612514
0
SEQEND
0
3DFACE
8
Surface
62
0
999
RGB=16756059
10
360846.977079
20
311377.999767
30
85.779444
11
360638.927789
21
311509.402452
31
82.886147
12
360663.035215
22
311555.630361
32
77.403729
13
360663.035215
23
311555.630361
33
77.403729
0
3DFACE
8
Surface
62
0
999
RGB=16756059
10
361030.918944
20
311200.369174
30
94.155160
11
360996.114261
21
311164.471485
31
92.347825
12
360846.977079
22
311377.999767
32
85.779444
13
360846.977079
23
311377.999767
33
85.779444
0
3DFACE
8
Surface
62
0
999
RGB=16756059
10
360841.448772
20
311383.338392
30
-181.545473
11
360985.408400
21
311174.810015
31
-187.447500
12
361019.862329
22
311211.046423
32
-180.847497
13
361019.862329
23
311211.046423
33
-180.847497
0
3DFACE
8
Surface
62
0
999
RGB=16756059
10
360663.035215
20
311555.630361
30
-182.243449
11
360636.981269
21
311511.282185
31
-199.612514
12
360841.448772
22
311383.338392
32
-181.545473
13
360841.448772
23
311383.338392
33
-181.545473
0
3DFACE
8
Surface
62
0
999
RGB=16756059
10
360663.035215
20
311555.630361
30
77.403729
11
360637.954529
21
311510.342319
31
-58.363184
12
360663.035215
22
311555.630361
32
-182.243449
13
360663.035215
23
311555.630361
33
-182.243449
0
3DFACE
8
Surface
62
0
999
RGB=16756059
10
360638.927789
20
311509.402452
30
82.886147
11
360846.977079
21
311377.999767
31
85.779444
12
360817.521025
22
311336.936969
32
87.616986
13
360817.521025
23
311336.936969
33
87.616986
0
3DFACE
8
Surface
62
0
999
RGB=16756059
10
360817.521025
20
311336.936969
30
87.616986
11
360846.977079
21
311377.999767
31
85.779444
12
360996.114261
22
311164.471485
32
92.347825
13
360996.114261
23
311164.471485
33
92.347825
0
3DFACE
8
Surface
62
0
999
RGB=16756059
10
360985.408400
20
311174.810015
30
-187.447500
11
360841.448772
21
311383.338392
31
-181.545473
12
360811.194834
22
311343.046100
32
-193.530007
13
360811.194834
23
311343.046100
33
-193.530007
0
3DFACE
8
Surface
62
0
999
RGB=16756059
10
360811.194834
20
311343.046100
30
-193.530007
11
360841.448772
21
311383.338392
31
-181.545473
12
360636.981269
22
311511.282185
32
-199.612514
13
360636.981269
23
311511.282185
33
-199.612514
0
3DFACE
8
Surface
62
0
999
RGB=16756059
10
360636.981269
20
311511.282185
30
-199.612514
11
360663.035215
21
311555.630361
31
-182.243449
12
360637.954529
22
311510.342319
32
-58.363184
13
360637.954529
23
311510.342319
33
-58.363184
0
3DFACE
8
Surface
62
0
999
RGB=16756059
10
360637.954529
20
311510.342319
30
-58.363184
11
360663.035215
21
311555.630361
31
77.403729
12
360638.927789
22
311509.402452
32
82.886147
13
360638.927789
23
311509.402452
33
82.886147
0
3DFACE
8
Surface
62
0
999
RGB=16756059
10
361019.862329
20
311211.046423
30
-180.847497
11
360996.114261
21
311164.471485
31
92.347825
12
361030.918944
22
311200.369174
32
94.155160
13
361030.918944
23
311200.369174
33
94.155160
0
3DFACE
8
Surface
62
0
999
RGB=16756059
10
361019.862329
20
311211.046423
30
-180.847497
11
360985.408400
21
311174.810015
31
-187.447500
12
360996.114261
22
311164.471485
32
92.347825
13
360996.114261
23
311164.471485
33
92.347825
0
POLYLINE
8
Edges
66
1
70
0
62
0
999
RGB=255
0
VERTEX
8
Edges
10
360885.279805
20
311410.519436
30
86.057974
0
VERTEX
8
Edges
10
360846.977079
20
311377.999767
30
85.779444
0
SEQEND
0
POLYLINE
8
Edges
66
1
70
0
62
0
999
RGB=255
0
VERTEX
8
Edges
10
360879.576120
20
311416.027419
30
-188.307157
0
VERTEX
8
Edges
10
360841.448772
20
311383.338392
30
-181.545473
0
SEQEND
0
POLYLINE
8
Edges
66
1
70
0
62
0
999
RGB=255
0
VERTEX
8
Edges
10
360704.835983
20
311584.772008
30
-197.668697
0
VERTEX
8
Edges
10
360841.448772
20
311383.338392
30
-181.545473
0
SEQEND
0
POLYLINE
8
Edges
66
1
70
0
62
0
999
RGB=255
0
VERTEX
8
Edges
10
360705.873017
20
311583.770557
30
80.297026
0
VERTEX
8
Edges
10
360846.977079
20
311377.999767
30
85.779444
0
SEQEND
0
POLYLINE
8
Edges
66
1
70
0
62
0
999
RGB=255
0
VERTEX
8
Edges
10
361064.686593
20
311237.268314
30
91.818922
0
VERTEX
8
Edges
10
360846.977079
20
311377.999767
30
85.779444
0
SEQEND
0
POLYLINE
8
Edges
66
1
70
0
62
0
999
RGB=255
0
VERTEX
8
Edges
10
361064.686593
20
311237.268314
30
91.818922
0
VERTEX
8
Edges
10
361030.918944
20
311200.369174
30
94.155160
0
SEQEND
0
POLYLINE
8
Edges
66
1
70
0
62
0
999
RGB=255
0
VERTEX
8
Edges
10
361054.316258
20
311247.282830
30
-178.945617
0
VERTEX
8
Edges
10
361019.862329
20
311211.046423
30
-180.847497
0
SEQEND
0
POLYLINE
8
Edges
66
1
70
0
62
0
999
RGB=255
0
VERTEX
8
Edges
10
360705.873017
20
311583.770557
30
80.297026
0
VERTEX
8
Edges
10
360663.035215
20
311555.630361
30
77.403729
0
SEQEND
0
POLYLINE
8
Edges
66
1
70
0
62
0
999
RGB=255
0
VERTEX
8
Edges
10
360704.835983
20
311584.772008
30
-197.668697
0
VERTEX
8
Edges
10
360663.035215
20
311555.630361
30
-182.243449
0
SEQEND
0
POLYLINE
8
Edges
66
1
70
0
62
0
999
RGB=255
0
VERTEX
8
Edges
10
360879.576120
20
311416.027419
30
-188.307157
0
VERTEX
8
Edges
10
361019.862329
20
311211.046423
30
-180.847497
0
SEQEND
0
POLYLINE
8
Edges
66
1
70
0
62
0
999
RGB=255
0
VERTEX
8
Edges
10
361054.316258
20
311247.282830
30
-178.945617
0
VERTEX
8
Edges
10
361030.918944
20
311200.369174
30
94.155160
0
SEQEND
0
3DFACE
8
Surface
62
0
999
RGB=16756059
10
360885.279805
20
311410.519436
30
86.057974
11
360846.977079
21
311377.999767
31
85.779444
12
360705.873017
22
311583.770557
32
80.297026
13
360705.873017
23
311583.770557
33
80.297026
0
3DFACE
8
Surface
62
0
999
RGB=16756059
10
361064.686593
20
311237.268314
30
91.818922
11
360846.977079
21
311377.999767
31
85.779444
12
360885.279805
22
311410.519436
32
86.057974
13
360885.279805
23
311410.519436
33
86.057974
0
3DFACE
8
Surface
62
0
999
RGB=16756059
10
361054.316258
20
311247.282830
30
-178.945617
11
361030.918944
21
311200.369174
31
94.155160
12
361064.686593
22
311237.268314
32
91.818922
13
361064.686593
23
311237.268314
33
91.818922
0
3DFACE
8
Surface
62
0
999
RGB=16756059
10
360879.576120
20
311416.027419
30
-188.307157
11
361019.862329
21
311211.046423
31
-180.847497
12
361054.316258
22
311247.282830
32
-178.945617
13
361054.316258
23
311247.282830
33
-178.945617
0
3DFACE
8
Surface
62
0
999
RGB=16756059
10
360704.835983
20
311584.772008
30
-197.668697
11
360841.448772
21
311383.338392
31
-181.545473
12
360879.576120
22
311416.027419
32
-188.307157
13
360879.576120
23
311416.027419
33
-188.307157
0
3DFACE
8
Surface
62
0
999
RGB=16756059
10
360663.035215
20
311555.630361
30
77.403729
11
360705.873017
21
311583.770557
31
80.297026
12
360846.977079
22
311377.999767
32
85.779444
13
360846.977079
23
311377.999767
33
85.779444
0
3DFACE
8
Surface
62
0
999
RGB=16756059
10
360846.977079
20
311377.999767
30
85.779444
11
361064.686593
21
311237.268314
31
91.818922
12
361030.918944
22
311200.369174
32
94.155160
13
361030.918944
23
311200.369174
33
94.155160
0
3DFACE
8
Surface
62
0
999
RGB=16756059
10
361030.918944
20
311200.369174
30
94.155160
11
361054.316258
21
311247.282830
31
-178.945617
12
361019.862329
22
311211.046423
32
-180.847497
13
361019.862329
23
311211.046423
33
-180.847497
0
3DFACE
8
Surface
62
0
999
RGB=16756059
10
361019.862329
20
311211.046423
30
-180.847497
11
360879.576120
21
311416.027419
31
-188.307157
12
360841.448772
22
311383.338392
32
-181.545473
13
360841.448772
23
311383.338392
33
-181.545473
0
3DFACE
8
Surface
62
0
999
RGB=16756059
10
360841.448772
20
311383.338392
30
-181.545473
11
360704.835983
21
311584.772008
31
-197.668697
12
360663.035215
22
311555.630361
32
-182.243449
13
360663.035215
23
311555.630361
33
-182.243449
0
3DFACE
8
Surface
62
0
999
RGB=16756059
10
360705.873017
20
311583.770557
30
80.297026
11
360663.035215
21
311555.630361
31
-182.243449
12
360704.835983
22
311584.772008
32
-197.668697
13
360704.835983
23
311584.772008
33
-197.668697
0
3DFACE
8
Surface
62
0
999
RGB=16756059
10
360705.873017
20
311583.770557
30
80.297026
11
360663.035215
21
311555.630361
31
77.403729
12
360663.035215
22
311555.630361
32
-182.243449
13
360663.035215
23
311555.630361
33
-182.243449
0
POLYLINE
8
Edges
66
1
70
0
62
0
999
RGB=255
0
VERTEX
8
Edges
10
360924.156490
20
311442.484837
30
86.425072
0
VERTEX
8
Edges
10
360885.279805
20
311410.519436
30
86.057974
0
SEQEND
0
POLYLINE
8
Edges
66
1
70
0
62
0
999
RGB=255
0
VERTEX
8
Edges
10
361089.839107
20
311282.486993
30
-170.397103
0
VERTEX
8
Edges
10
361054.316258
20
311247.282830
30
-178.945617
0
SEQEND
0
POLYLINE
8
Edges
66
1
70
0
62
0
999
RGB=255
0
VERTEX
8
Edges
10
360748.853591
20
311611.772878
30
79.002466
0
VERTEX
8
Edges
10
360705.873017
20
311583.770557
30
80.297026
0
SEQEND
0
POLYLINE
8
Edges
66
1
70
0
62
0
999
RGB=255
0
VERTEX
8
Edges
10
360918.277429
20
311448.162179
30
-175.592927
0
VERTEX
8
Edges
10
360879.576120
20
311416.027419
30
-188.307157
0
SEQEND
0
POLYLINE
8
Edges
66
1
70
0
62
0
999
RGB=255
0
VERTEX
8
Edges
10
360746.715751
20
311613.837366
30
-180.788752
0
VERTEX
8
Edges
10
360704.835983
20
311584.772008
30
-197.668697
0
SEQEND
0
POLYLINE
8
Edges
66
1
70
0
62
0
999
RGB=255
0
VERTEX
8
Edges
10
361089.839107
20
311282.486993
30
-170.397103
0
VERTEX
8
Edges
10
360879.576120
20
311416.027419
30
-188.307157
0
SEQEND
0
POLYLINE
8
Edges
66
1
70
0
62
0
999
RGB=255
0
VERTEX
8
Edges
10
360748.853591
20
311611.772878
30
79.002466
0
VERTEX
8
Edges
10
360885.279805
20
311410.519436
30
86.057974
0
SEQEND
0
POLYLINE
8
Edges
66
1
70
0
62
0
999
RGB=255
0
VERTEX
8
Edges
10
360746.715751
20
311613.837366
30
-180.788752
0
VERTEX
8
Edges
10
360879.576120
20
311416.027419
30
-188.307157
0
SEQEND
0
POLYLINE
8
Edges
66
1
70
0
62
0
999
RGB=255
0
VERTEX
8
Edges
10
361099.459388
20
311273.196796
30
93.847678
0
VERTEX
8
Edges
10
361064.686593
20
311237.268314
30
91.818922
0
SEQEND
0
POLYLINE
8
Edges
66
1
70
0
62
0
999
RGB=255
0
VERTEX
8
Edges
10
360746.715751
20
311613.837366
30
-180.788752
0
VERTEX
8
Edges
10
360705.873017
20
311583.770557
30
80.297026
0
SEQEND
0
POLYLINE
8
Edges
66
1
70
0
62
0
999
RGB=255
0
VERTEX
8
Edges
10
361089.839107
20
311282.486993
30
-170.397103
0
VERTEX
8
Edges
10
361064.686593
20
311237.268314
30
91.818922
0
SEQEND
0
POLYLINE
8
Edges
66
1
70
0
62
0
999
RGB=255
0
VERTEX
8
Edges
10
361099.459388
20
311273.196796
30
93.847678
0
VERTEX
8
Edges
10
360885.279805
20
311410.519436
30
86.057974
0
SEQEND
0
3DFACE
8
Surface
62
0
999
RGB=16756059
10
360924.156490
20
311442.484837
30
86.425072
11
360885.279805
21
311410.519436
31
86.057974
12
360748.853591
22
311611.772878
32
79.002466
13
360748.853591
23
311611.772878
33
79.002466
0
3DFACE
8
Surface
62
0
999
RGB=16756059
10
361099.459388
20
311273.196796
30
93.847678
11
360885.279805
21
311410.519436
31
86.057974
12
360924.156490
22
311442.484837
32
86.425072
13
360924.156490
23
311442.484837
33
86.425072
0
3DFACE
8
Surface
62
0
999
RGB=16756059
10
361089.839107
20
311282.486993
30
-170.397103
11
361064.686593
21
311237.268314
31
91.818922
12
361099.459388
22
311273.196796
32
93.847678
13
361099.459388
23
311273.196796
33
93.847678
0
3DFACE
8
Surface
62
0
999
RGB=16756059
10
360918.277429
20
311448.162179
30
-175.592927
11
360879.576120
21
311416.027419
31
-188.307157
12
361089.839107
22
311282.486993
32
-170.397103
13
361089.839107
23
311282.486993
33
-170.397103
0
3DFACE
8
Surface
62
0
999
RGB=16756059
10
360746.715751
20
311613.837366
30
-180.788752
11
360879.576120
21
311416.027419
31
-188.307157
12
360918.277429
22
311448.162179
32
-175.592927
13
360918.277429
23
311448.162179
33
-175.592927
0
3DFACE
8
Surface
62
0
999
RGB=16756059
10
360748.853591
20
311611.772878
30
79.002466
11
360705.873017
21
311583.770557
31
80.297026
12
360746.715751
22
311613.837366
32
-180.788752
13
360746.715751
23
311613.837366
33
-180.788752
0
3DFACE
8
Surface
62
0
999
RGB=16756059
10
360705.873017
20
311583.770557
30
80.297026
11
360748.853591
21
311611.772878
31
79.002466
12
360885.279805
22
311410.519436
32
86.057974
13
360885.279805
23
311410.519436
33
86.057974
0
3DFACE
8
Surface
62
0
999
RGB=16756059
10
360885.279805
20
311410.519436
30
86.057974
11
361099.459388
21
311273.196796
31
93.847678
12
361064.686593
22
311237.268314
32
91.818922
13
361064.686593
23
311237.268314
33
91.818922
0
3DFACE
8
Surface
62
0
999
RGB=16756059
10
361064.686593
20
311237.268314
30
91.818922
11
361089.839107
21
311282.486993
31
-170.397103
12
361054.316258
22
311247.282830
32
-178.945617
13
361054.316258
23
311247.282830
33
-178.945617
0
3DFACE
8
Surface
62
0
999
RGB=16756059
10
361054.316258
20
311247.282830
30
-178.945617
11
361089.839107
21
311282.486993
31
-170.397103
12
360879.576120
22
311416.027419
32
-188.307157
13
360879.576120
23
311416.027419
33
-188.307157
0
3DFACE
8
Surface
62
0
999
RGB=16756059
10
360879.576120
20
311416.027419
30
-188.307157
11
360746.715751
21
311613.837366
31
-180.788752
12
360704.835983
22
311584.772008
32
-197.668697
13
360704.835983
23
311584.772008
33
-197.668697
0
3DFACE
8
Surface
62
0
999
RGB=16756059
10
360704.835983
20
311584.772008
30
-197.668697
11
360746.715751
21
311613.837366
31
-180.788752
12
360705.873017
22
311583.770557
32
80.297026
13
360705.873017
23
311583.770557
33
80.297026
0
POLYLINE
8
Edges
66
1
70
0
62
0
999
RGB=255
0
VERTEX
8
Edges
10
360966.359152
20
311471.238379
30
86.116336
0
VERTEX
8
Edges
10
360924.156490
20
311442.484837
30
86.425072
0
SEQEND
0
POLYLINE
8
Edges
66
1
70
0
62
0
999
RGB=255
0
VERTEX
8
Edges
10
360963.056732
20
311474.427490
30
-173.016210
0
VERTEX
8
Edges
10
360918.277429
20
311448.162179
30
-175.592927
0
SEQEND
0
POLYLINE
8
Edges
66
1
70
0
62
0
999
RGB=255
0
VERTEX
8
Edges
10
360800.687733
20
311631.225409
30
-176.073821
0
VERTEX
8
Edges
10
360746.715751
20
311613.837366
30
-180.788752
0
SEQEND
0
POLYLINE
8
Edges
66
1
70
0
62
0
999
RGB=255
0
VERTEX
8
Edges
10
360800.687733
20
311631.225409
30
-174.545015
0
VERTEX
8
Edges
10
360746.715751
20
311613.837366
30
-180.788752
0
SEQEND
0
POLYLINE
8
Edges
66
1
70
0
62
0
999
RGB=255
0
VERTEX
8
Edges
10
360800.687733
20
311631.225409
30
-176.073821
0
VERTEX
8
Edges
10
360918.277429
20
311448.162179
30
-175.592927
0
SEQEND
0
POLYLINE
8
Edges
66
1
70
0
62
0
999
RGB=255
0
VERTEX
8
Edges
10
360963.056732
20
311474.427490
30
-173.016210
0
VERTEX
8
Edges
10
361089.839107
20
311282.486993
30
-170.397103
0
SEQEND
0
POLYLINE
8
Edges
66
1
70
0
62
0
999
RGB=255
0
VERTEX
8
Edges
10
360966.359152
20
311471.238379
30
86.116336
0
VERTEX
8
Edges
10
361099.459388
20
311273.196796
30
93.847678
0
SEQEND
0
POLYLINE
8
Edges
66
1
70
0
62
0
999
RGB=255
0
VERTEX
8
Edges
10
360800.687733
20
311631.225409
30
-174.545015
0
VERTEX
8
Edges
10
360748.853591
20
311611.772878
30
79.002466
0
SEQEND
0
POLYLINE
8
Edges
66
1
70
0
62
0
999
RGB=255
0
VERTEX
8
Edges
10
361125.425730
20
311317.629571
30
-169.958599
0
VERTEX
8
Edges
10
361089.839107
20
311282.486993
30
-170.397103
0
SEQEND
0
POLYLINE
8
Edges
66
1
70
0
62
0
999
RGB=255
0
VERTEX
8
Edges
10
361135.332991
20
311308.062240
30
92.995961
0
VERTEX
8
Edges
10
361099.459388
20
311273.196796
30
93.847678
0
SEQEND
0
POLYLINE
8
Edges
66
1
70
0
62
0
999
RGB=255
0
VERTEX
8
Edges
10
360797.385313
20
311634.414519
30
79.236711
0
VERTEX
8
Edges
10
360748.853591
20
311611.772878
30
79.002466
0
SEQEND
0
POLYLINE
8
Edges
66
1
70
0
62
0
999
RGB=255
0
VERTEX
8
Edges
10
360797.385313
20
311634.414519
30
79.236711
0
VERTEX
8
Edges
10
360924.156490
20
311442.484837
30
86.425072
0
SEQEND
0
3DFACE
8
Surface
62
0
999
RGB=16756059
10
360966.359152
20
311471.238379
30
86.116336
11
360924.156490
21
311442.484837
31
86.425072
12
360797.385313
22
311634.414519
32
79.236711
13
360797.385313
23
311634.414519
33
79.236711
0
3DFACE
8
Surface
62
0
999
RGB=16756059
10
361135.332991
20
311308.062240
30
92.995961
11
361099.459388
21
311273.196796
31
93.847678
12
360966.359152
22
311471.238379
32
86.116336
13
360966.359152
23
311471.238379
33
86.116336
0
3DFACE
8
Surface
62
0
999
RGB=16756059
10
360963.056732
20
311474.427490
30
-173.016210
11
361089.839107
21
311282.486993
31
-170.397103
12
361125.425730
22
311317.629571
32
-169.958599
13
361125.425730
23
311317.629571
33
-169.958599
0
3DFACE
8
Surface
62
0
999
RGB=16756059
10
360800.687733
20
311631.225409
30
-176.073821
11
360918.277429
21
311448.162179
31
-175.592927
12
360963.056732
22
311474.427490
32
-173.016210
13
360963.056732
23
311474.427490
33
-173.016210
0
3DFACE
8
Surface
62
0
999
RGB=16756059
10
360800.687733
20
311631.225409
30
-174.545015
11
360746.715751
21
311613.837366
31
-180.788752
12
360800.687733
22
311631.225409
32
-176.073821
13
360800.687733
23
311631.225409
33
-176.073821
0
3DFACE
8
Surface
62
0
999
RGB=16756059
10
360797.385313
20
311634.414519
30
79.236711
11
360748.853591
21
311611.772878
31
79.002466
12
360800.687733
22
311631.225409
32
-174.545015
13
360800.687733
23
311631.225409
33
-174.545015
0
3DFACE
8
Surface
62
0
999
RGB=16756059
10
360748.853591
20
311611.772878
30
79.002466
11
360797.385313
21
311634.414519
31
79.236711
12
360924.156490
22
311442.484837
32
86.425072
13
360924.156490
23
311442.484837
33
86.425072
0
3DFACE
8
Surface
62
0
999
RGB=16756059
10
360924.156490
20
311442.484837
30
86.425072
11
360966.359152
21
311471.238379
31
86.116336
12
361099.459388
22
311273.196796
32
93.847678
13
361099.459388
23
311273.196796
33
93.847678
0
3DFACE
8
Surface
62
0
999
RGB=16756059
10
361089.839107
20
311282.486993
30
-170.397103
11
360963.056732
21
311474.427490
31
-173.016210
12
360918.277429
22
311448.162179
32
-175.592927
13
360918.277429
23
311448.162179
33
-175.592927
0
3DFACE
8
Surface
62
0
999
RGB=16756059
10
360918.277429
20
311448.162179
30
-175.592927
11
360800.687733
21
311631.225409
31
-176.073821
12
360746.715751
22
311613.837366
32
-180.788752
13
360746.715751
23
311613.837366
33
-180.788752
0
3DFACE
8
Surface
62
0
999
RGB=16756059
10
360746.715751
20
311613.837366
30
-180.788752
11
360800.687733
21
311631.225409
31
-174.545015
12
360748.853591
22
311611.772878
32
79.002466
13
360748.853591
23
311611.772878
33
79.002466
0
3DFACE
8
Surface
62
0
999
RGB=16756059
10
361089.839107
20
311282.486993
30
-170.397103
11
361135.332991
21
311308.062240
31
92.995961
12
361125.425730
22
311317.629571
32
-169.958599
13
361125.425730
23
311317.629571
33
-169.958599
0
3DFACE
8
Surface
62
0
999
RGB=16756059
10
361135.332991
20
311308.062240
30
92.995961
11
361089.839107
21
311282.486993
31
-170.397103
12
361099.459388
22
311273.196796
32
93.847678
13
361099.459388
23
311273.196796
33
93.847678
0
POLYLINE
8
Edges
66
1
70
0
62
0
999
RGB=255
0
VERTEX
8
Edges
10
361169.004979
20
311345.053758
30
90.571155
0
VERTEX
8
Edges
10
361135.332991
20
311308.062240
30
92.995961
0
SEQEND
0
POLYLINE
8
Edges
66
1
70
0
62
0
999
RGB=255
0
VERTEX
8
Edges
10
361003.631739
20
311504.752840
30
85.065340
0
VERTEX
8
Edges
10
360966.359152
20
311471.238379
30
86.116336
0
SEQEND
0
POLYLINE
8
Edges
66
1
70
0
62
0
999
RGB=255
0
VERTEX
8
Edges
10
361158.810739
20
311354.898222
30
-162.696322
0
VERTEX
8
Edges
10
361125.425730
20
311317.629571
30
-169.958599
0
SEQEND
0
POLYLINE
8
Edges
66
1
70
0
62
0
999
RGB=255
0
VERTEX
8
Edges
10
361010.994247
20
311497.642949
30
-169.775227
0
VERTEX
8
Edges
10
360963.056732
20
311474.427490
30
-173.016210
0
SEQEND
0
POLYLINE
8
Edges
66
1
70
0
62
0
999
RGB=255
0
VERTEX
8
Edges
10
361010.994247
20
311497.642949
30
-169.775227
0
VERTEX
8
Edges
10
361125.425730
20
311317.629571
30
-169.958599
0
SEQEND
0
POLYLINE
8
Edges
66
1
70
0
62
0
999
RGB=255
0
VERTEX
8
Edges
10
361003.631739
20
311504.752840
30
85.065340
0
VERTEX
8
Edges
10
361135.332991
20
311308.062240
30
92.995961
0
SEQEND
0
POLYLINE
8
Edges
66
1
70
0
62
0
999
RGB=255
0
VERTEX
8
Edges
10
360838.258500
20
311664.451921
30
79.559525
0
VERTEX
8
Edges
10
360797.385313
20
311634.414519
30
79.236711
0
SEQEND
0
POLYLINE
8
Edges
66
1
70
0
62
0
999
RGB=255
0
VERTEX
8
Edges
10
360863.177755
20
311640.387676
30
-176.854132
0
VERTEX
8
Edges
10
360800.687733
20
311631.225409
30
-176.073821
0
SEQEND
0
POLYLINE
8
Edges
66
1
70
0
62
0
999
RGB=255
0
VERTEX
8
Edges
10
360863.177755
20
311640.387676
30
-176.854132
0
VERTEX
8
Edges
10
360963.056732
20
311474.427490
30
-173.016210
0
SEQEND
0
POLYLINE
8
Edges
66
1
70
0
62
0
999
RGB=255
0
VERTEX
8
Edges
10
361158.810739
20
311354.898222
30
-162.696322
0
VERTEX
8
Edges
10
361135.332991
20
311308.062240
30
92.995961
0
SEQEND
0
POLYLINE
8
Edges
66
1
70
0
62
0
999
RGB=255
0
VERTEX
8
Edges
10
360838.258500
20
311664.451921
30
79.559525
0
VERTEX
8
Edges
10
360966.359152
20
311471.238379
30
86.116336
0
SEQEND
0
3DFACE
8
Surface
62
0
999
RGB=16756059
10
361158.810739
20
311354.898222
30
-162.696322
11
361135.332991
21
311308.062240
31
92.995961
12
361169.004979
22
311345.053758
32
90.571155
13
361169.004979
23
311345.053758
33
90.571155
0
3DFACE
8
Surface
62
0
999
RGB=16756059
10
361010.994247
20
311497.642949
30
-169.775227
11
361125.425730
21
311317.629571
31
-169.958599
12
361158.810739
22
311354.898222
32
-162.696322
13
361158.810739
23
311354.898222
33
-162.696322
0
3DFACE
8
Surface
62
0
999
RGB=16756059
10
360863.177755
20
311640.387676
30
-176.854132
11
360963.056732
21
311474.427490
31
-173.016210
12
361010.994247
22
311497.642949
32
-169.775227
13
361010.994247
23
311497.642949
33
-169.775227
0
3DFACE
8
Surface
62
0
999
RGB=16756059
10
361003.631739
20
311504.752840
30
85.065340
11
360966.359152
21
311471.238379
31
86.116336
12
360838.258500
22
311664.451921
32
79.559525
13
360838.258500
23
311664.451921
33
79.559525
0
3DFACE
8
Surface
62
0
999
RGB=16756059
10
361169.004979
20
311345.053758
30
90.571155
11
361135.332991
21
311308.062240
31
92.995961
12
361003.631739
22
311504.752840
32
85.065340
13
361003.631739
23
311504.752840
33
85.065340
0
3DFACE
8
Surface
62
0
999
RGB=16756059
10
360797.385313
20
311634.414519
30
79.236711
11
360838.258500
21
311664.451921
31
79.559525
12
360966.359152
22
311471.238379
32
86.116336
13
360966.359152
23
311471.238379
33
86.116336
0
3DFACE
8
Surface
62
0
999
RGB=16756059
10
360966.359152
20
311471.238379
30
86.116336
11
361003.631739
21
311504.752840
31
85.065340
12
361135.332991
22
311308.062240
32
92.995961
13
361135.332991
23
311308.062240
33
92.995961
0
3DFACE
8
Surface
62
0
999
RGB=16756059
10
361135.332991
20
311308.062240
30
92.995961
11
361158.810739
21
311354.898222
31
-162.696322
12
361125.425730
22
311317.629571
32
-169.958599
13
361125.425730
23
311317.629571
33
-169.958599
0
3DFACE
8
Surface
62
0
999
RGB=16756059
10
361125.425730
20
311317.629571
30
-169.958599
11
361010.994247
21
311497.642949
31
-169.775227
12
360963.056732
22
311474.427490
32
-173.016210
13
360963.056732
23
311474.427490
33
-173.016210
0
3DFACE
8
Surface
62
0
999
RGB=16756059
10
360963.056732
20
311474.427490
30
-173.016210
11
360863.177755
21
311640.387676
31
-176.854132
12
360800.687733
22
311631.225409
32
-176.073821
13
360800.687733
23
311631.225409
33
-176.073821
0
3DFACE
8
Surface
62
0
999
RGB=16756059
10
360838.258500
20
311664.451921
30
79.559525
11
360800.687733
21
311631.225409
31
-176.073821
12
360863.177755
22
311640.387676
32
-176.854132
13
360863.177755
23
311640.387676
33
-176.854132
0
3DFACE
8
Surface
62
0
999
RGB=16756059
10
360800.687733
20
311631.225409
30
-174.545015
11
360838.258500
21
311664.451921
31
79.559525
12
360797.385313
22
311634.414519
32
79.236711
13
360797.385313
23
311634.414519
33
79.236711
0
3DFACE
8
Surface
62
0
999
RGB=16756059
10
360800.687733
20
311631.225409
30
-174.545015
11
360800.687733
21
311631.225409
31
-176.073821
12
360838.258500
22
311664.451921
32
79.559525
13
360838.258500
23
311664.451921
33
79.559525
0
POLYLINE
8
Edges
66
1
70
0
62
0
999
RGB=255
0
VERTEX
8
Edges
10
361193.296554
20
311391.103837
30
-161.017856
0
VERTEX
8
Edges
10
361158.810739
20
311354.898222
30
-162.696322
0
SEQEND
0
POLYLINE
8
Edges
66
1
70
0
62
0
999
RGB=255
0
VERTEX
8
Edges
10
361041.901144
20
311537.304685
30
84.823030
0
VERTEX
8
Edges
10
361003.631739
20
311504.752840
30
85.065340
0
SEQEND
0
POLYLINE
8
Edges
66
1
70
0
62
0
999
RGB=255
0
VERTEX
8
Edges
10
361040.154273
20
311538.991618
30
-172.339476
0
VERTEX
8
Edges
10
361010.994247
20
311497.642949
30
-169.775227
0
SEQEND
0
POLYLINE
8
Edges
66
1
70
0
62
0
999
RGB=255
0
VERTEX
8
Edges
10
360881.189093
20
311692.502509
30
78.353533
0
VERTEX
8
Edges
10
360838.258500
20
311664.451921
30
79.559525
0
SEQEND
0
POLYLINE
8
Edges
66
1
70
0
62
0
999
RGB=255
0
VERTEX
8
Edges
10
360887.011993
20
311686.879400
30
-183.661096
0
VERTEX
8
Edges
10
360863.177755
20
311640.387676
30
-176.854132
0
SEQEND
0
POLYLINE
8
Edges
66
1
70
0
62
0
999
RGB=255
0
VERTEX
8
Edges
10
361040.154273
20
311538.991618
30
-172.339476
0
VERTEX
8
Edges
10
360863.177755
20
311640.387676
30
-176.854132
0
SEQEND
0
POLYLINE
8
Edges
66
1
70
0
62
0
999
RGB=255
0
VERTEX
8
Edges
10
360881.189093
20
311692.502509
30
78.353533
0
VERTEX
8
Edges
10
361003.631739
20
311504.752840
30
85.065340
0
SEQEND
0
POLYLINE
8
Edges
66
1
70
0
62
0
999
RGB=255
0
VERTEX
8
Edges
10
361202.613195
20
311382.106862
30
91.292527
0
VERTEX
8
Edges
10
361169.004979
20
311345.053758
30
90.571155
0
SEQEND
0
POLYLINE
8
Edges
66
1
70
0
62
0
999
RGB=255
0
VERTEX
8
Edges
10
361193.296554
20
311391.103837
30
-161.017856
0
VERTEX
8
Edges
10
361169.004979
20
311345.053758
30
90.571155
0
SEQEND
0
POLYLINE
8
Edges
66
1
70
0
62
0
999
RGB=255
0
VERTEX
8
Edges
10
361193.296554
20
311391.103837
30
-161.017856
0
VERTEX
8
Edges
10
361010.994247
20
311497.642949
30
-169.775227
0
SEQEND
0
POLYLINE
8
Edges
66
1
70
0
62
0
999
RGB=255
0
VERTEX
8
Edges
10
361202.613195
20
311382.106862
30
91.292527
0
VERTEX
8
Edges
10
361003.631739
20
311504.752840
30
85.065340
0
SEQEND
0
POLYLINE
8
Edges
66
1
70
0
62
0
999
RGB=255
0
VERTEX
8
Edges
10
360887.011993
20
311686.879400
30
-183.661096
0
VERTEX
8
Edges
10
360838.258500
20
311664.451921
30
79.559525
0
SEQEND
0
3DFACE
8
Surface
62
0
999
RGB=16756059
10
361041.901144
20
311537.304685
30
84.823030
11
361003.631739
21
311504.752840
31
85.065340
12
360881.189093
22
311692.502509
32
78.353533
13
360881.189093
23
311692.502509
33
78.353533
0
3DFACE
8
Surface
62
0
999
RGB=16756059
10
361202.613195
20
311382.106862
30
91.292527
11
361003.631739
21
311504.752840
31
85.065340
12
361041.901144
22
311537.304685
32
84.823030
13
361041.901144
23
311537.304685
33
84.823030
0
3DFACE
8
Surface
62
0
999
RGB=16756059
10
361193.296554
20
311391.103837
30
-161.017856
11
361169.004979
21
311345.053758
31
90.571155
12
361202.613195
22
311382.106862
32
91.292527
13
361202.613195
23
311382.106862
33
91.292527
0
3DFACE
8
Surface
62
0
999
RGB=16756059
10
361040.154273
20
311538.991618
30
-172.339476
11
361010.994247
21
311497.642949
31
-169.775227
12
361193.296554
22
311391.103837
32
-161.017856
13
361193.296554
23
311391.103837
33
-161.017856
0
3DFACE
8
Surface
62
0
999
RGB=16756059
10
360887.011993
20
311686.879400
30
-183.661096
11
360863.177755
21
311640.387676
31
-176.854132
12
361040.154273
22
311538.991618
32
-172.339476
13
361040.154273
23
311538.991618
33
-172.339476
0
3DFACE
8
Surface
62
0
999
RGB=16756059
10
360881.189093
20
311692.502509
30
78.353533
11
360838.258500
21
311664.451921
31
79.559525
12
360887.011993
22
311686.879400
32
-183.661096
13
360887.011993
23
311686.879400
33
-183.661096
0
3DFACE
8
Surface
62
0
999
RGB=16756059
10
361169.004979
20
311345.053758
30
90.571155
11
361193.296554
21
311391.103837
31
-161.017856
12
361158.810739
22
311354.898222
32
-162.696322
13
361158.810739
23
311354.898222
33
-162.696322
0
3DFACE
8
Surface
62
0
999
RGB=16756059
10
361158.810739
20
311354.898222
30
-162.696322
11
361193.296554
21
311391.103837
31
-161.017856
12
361010.994247
22
311497.642949
32
-169.775227
13
361010.994247
23
311497.642949
33
-169.775227
0
3DFACE
8
Surface
62
0
999
RGB=16756059
10
361010.994247
20
311497.642949
30
-169.775227
11
361040.154273
21
311538.991618
31
-172.339476
12
360863.177755
22
311640.387676
32
-176.854132
13
360863.177755
23
311640.387676
33
-176.854132
0
3DFACE
8
Surface
62
0
999
RGB=16756059
10
360863.177755
20
311640.387676
30
-176.854132
11
360887.011993
21
311686.879400
31
-183.661096
12
360838.258500
22
311664.451921
32
79.559525
13
360838.258500
23
311664.451921
33
79.559525
0
3DFACE
8
Surface
62
0
999
RGB=16756059
10
360838.258500
20
311664.451921
30
79.559525
11
360881.189093
21
311692.502509
31
78.353533
12
361003.631739
22
311504.752840
32
85.065340
13
361003.631739
23
311504.752840
33
85.065340
0
3DFACE
8
Surface
62
0
999
RGB=16756059
10
361003.631739
20
311504.752840
30
85.065340
11
361202.613195
21
311382.106862
31
91.292527
12
361169.004979
22
311345.053758
32
90.571155
13
361169.004979
23
311345.053758
33
90.571155
0
POLYLINE
8
Edges
66
1
70
0
62
0
999
RGB=255
0
VERTEX
8
Edges
10
361227.782370
20
311427.309452
30
-158.807978
0
VERTEX
8
Edges
10
361193.296554
20
311391.103837
30
-161.017856
0
SEQEND
0
POLYLINE
8
Edges
66
1
70
0
62
0
999
RGB=255
0
VERTEX
8
Edges
10
361078.224028
20
311571.736264
30
-164.623784
0
VERTEX
8
Edges
10
361040.154273
20
311538.991618
30
-172.339476
0
SEQEND
0
POLYLINE
8
Edges
66
1
70
0
62
0
999
RGB=255
0
VERTEX
8
Edges
10
360928.665686
20
311716.163076
30
-170.439589
0
VERTEX
8
Edges
10
360887.011993
20
311686.879400
30
-183.661096
0
SEQEND
0
POLYLINE
8
Edges
66
1
70
0
62
0
999
RGB=255
0
VERTEX
8
Edges
10
361096.171029
20
311554.405046
30
82.132518
0
VERTEX
8
Edges
10
361041.901144
20
311537.304685
30
84.823030
0
SEQEND
0
POLYLINE
8
Edges
66
1
70
0
62
0
999
RGB=255
0
VERTEX
8
Edges
10
361227.782370
20
311427.309452
30
-158.807978
0
VERTEX
8
Edges
10
361040.154273
20
311538.991618
30
-172.339476
0
SEQEND
0
POLYLINE
8
Edges
66
1
70
0
62
0
999
RGB=255
0
VERTEX
8
Edges
10
360928.665686
20
311716.163076
30
-170.439589
0
VERTEX
8
Edges
10
361040.154273
20
311538.991618
30
-172.339476
0
SEQEND
0
POLYLINE
8
Edges
66
1
70
0
62
0
999
RGB=255
0
VERTEX
8
Edges
10
361236.157637
20
311419.221550
30
92.102469
0
VERTEX
8
Edges
10
361202.613195
20
311382.106862
30
91.292527
0
SEQEND
0
POLYLINE
8
Edges
66
1
70
0
62
0
999
RGB=255
0
VERTEX
8
Edges
10
360928.665686
20
311716.163076
30
80.470859
0
VERTEX
8
Edges
10
360881.189093
20
311692.502509
30
78.353533
0
SEQEND
0
POLYLINE
8
Edges
66
1
70
0
62
0
999
RGB=255
0
VERTEX
8
Edges
10
360928.665686
20
311716.163076
30
-170.439589
0
VERTEX
8
Edges
10
360881.189093
20
311692.502509
30
78.353533
0
SEQEND
0
POLYLINE
8
Edges
66
1
70
0
62
0
999
RGB=255
0
VERTEX
8
Edges
10
361227.782370
20
311427.309452
30
-158.807978
0
VERTEX
8
Edges
10
361202.613195
20
311382.106862
30
91.292527
0
SEQEND
0
POLYLINE
8
Edges
66
1
70
0
62
0
999
RGB=255
0
VERTEX
8
Edges
10
360928.665686
20
311716.163076
30
80.470859
0
VERTEX
8
Edges
10
361041.901144
20
311537.304685
30
84.823030
0
SEQEND
0
POLYLINE
8
Edges
66
1
70
0
62
0
999
RGB=255
0
VERTEX
8
Edges
10
361236.157637
20
311419.221550
30
92.102469
0
VERTEX
8
Edges
10
361041.901144
20
311537.304685
30
84.823030
0
SEQEND
0
3DFACE
8
Surface
62
0
999
RGB=16756059
10
361096.171029
20
311554.405046
30
82.132518
11
361041.901144
21
311537.304685
31
84.823030
12
360928.665686
22
311716.163076
32
80.470859
13
360928.665686
23
311716.163076
33
80.470859
0
3DFACE
8
Surface
62
0
999
RGB=16756059
10
361236.157637
20
311419.221550
30
92.102469
11
361041.901144
21
311537.304685
31
84.823030
12
361096.171029
22
311554.405046
32
82.132518
13
361096.171029
23
311554.405046
33
82.132518
0
3DFACE
8
Surface
62
0
999
RGB=16756059
10
361227.782370
20
311427.309452
30
-158.807978
11
361202.613195
21
311382.106862
31
91.292527
12
361236.157637
22
311419.221550
32
92.102469
13
361236.157637
23
311419.221550
33
92.102469
0
3DFACE
8
Surface
62
0
999
RGB=16756059
10
361078.224028
20
311571.736264
30
-164.623784
11
361040.154273
21
311538.991618
31
-172.339476
12
361227.782370
22
311427.309452
32
-158.807978
13
361227.782370
23
311427.309452
33
-158.807978
0
3DFACE
8
Surface
62
0
999
RGB=16756059
10
360928.665686
20
311716.163076
30
-170.439589
11
361040.154273
21
311538.991618
31
-172.339476
12
361078.224028
22
311571.736264
32
-164.623784
13
361078.224028
23
311571.736264
33
-164.623784
0
3DFACE
8
Surface
62
0
999
RGB=16756059
10
360928.665686
20
311716.163076
30
80.470859
11
360881.189093
21
311692.502509
31
78.353533
12
360928.665686
22
311716.163076
32
-170.439589
13
360928.665686
23
311716.163076
33
-170.439589
0
3DFACE
8
Surface
62
0
999
RGB=16756059
10
360881.189093
20
311692.502509
30
78.353533
11
360928.665686
21
311716.163076
31
80.470859
12
361041.901144
22
311537.304685
32
84.823030
13
361041.901144
23
311537.304685
33
84.823030
0
3DFACE
8
Surface
62
0
999
RGB=16756059
10
361041.901144
20
311537.304685
30
84.823030
11
361236.157637
21
311419.221550
31
92.102469
12
361202.613195
22
311382.106862
32
91.292527
13
361202.613195
23
311382.106862
33
91.292527
0
3DFACE
8
Surface
62
0
999
RGB=16756059
10
361202.613195
20
311382.106862
30
91.292527
11
361227.782370
21
311427.309452
31
-158.807978
12
361193.296554
22
311391.103837
32
-161.017856
13
361193.296554
23
311391.103837
33
-161.017856
0
3DFACE
8
Surface
62
0
999
RGB=16756059
10
361193.296554
20
311391.103837
30
-161.017856
11
361227.782370
21
311427.309452
31
-158.807978
12
361040.154273
22
311538.991618
32
-172.339476
13
361040.154273
23
311538.991618
33
-172.339476
0
3DFACE
8
Surface
62
0
999
RGB=16756059
10
361040.154273
20
311538.991618
30
-172.339476
11
360928.665686
21
311716.163076
31
-170.439589
12
360887.011993
22
311686.879400
32
-183.661096
13
360887.011993
23
311686.879400
33
-183.661096
0
3DFACE
8
Surface
62
0
999
RGB=16756059
10
360887.011993
20
311686.879400
30
-183.661096
11
360928.665686
21
311716.163076
31
-170.439589
12
360881.189093
22
311692.502509
32
78.353533
13
360881.189093
23
311692.502509
33
78.353533
0
POLYLINE
8
Edges
66
1
70
0
62
0
999
RGB=255
0
VERTEX
8
Edges
10
361117.322486
20
311603.487502
30
-156.919659
0
VERTEX
8
Edges
10
361078.224028
20
311571.736264
30
-164.623784
0
SEQEND
0
POLYLINE
8
Edges
66
1
70
0
62
0
999
RGB=255
0
VERTEX
8
Edges
10
360968.691725
20
311747.018559
30
-161.184517
0
VERTEX
8
Edges
10
360928.665686
20
311716.163076
30
-170.439589
0
SEQEND
0
POLYLINE
8
Edges
66
1
70
0
62
0
999
RGB=255
0
VERTEX
8
Edges
10
360972.376785
20
311743.459938
30
75.941550
0
VERTEX
8
Edges
10
360928.665686
20
311716.163076
30
80.470859
0
SEQEND
0
POLYLINE
8
Edges
66
1
70
0
62
0
999
RGB=255
0
VERTEX
8
Edges
10
361122.235899
20
311598.742674
30
83.618293
0
VERTEX
8
Edges
10
361096.171029
20
311554.405046
30
82.132518
0
SEQEND
0
POLYLINE
8
Edges
66
1
70
0
62
0
999
RGB=255
0
VERTEX
8
Edges
10
360968.691725
20
311747.018559
30
-159.478574
0
VERTEX
8
Edges
10
360928.665686
20
311716.163076
30
-170.439589
0
SEQEND
0
POLYLINE
8
Edges
66
1
70
0
62
0
999
RGB=255
0
VERTEX
8
Edges
10
361117.322486
20
311603.487502
30
-156.919659
0
VERTEX
8
Edges
10
361227.782370
20
311427.309452
30
-158.807978
0
SEQEND
0
POLYLINE
8
Edges
66
1
70
0
62
0
999
RGB=255
0
VERTEX
8
Edges
10
360968.691725
20
311747.018559
30
-161.184517
0
VERTEX
8
Edges
10
361078.224028
20
311571.736264
30
-164.623784
0
SEQEND
0
POLYLINE
8
Edges
66
1
70
0
62
0
999
RGB=255
0
VERTEX
8
Edges
10
360968.691725
20
311747.018559
30
-159.478574
0
VERTEX
8
Edges
10
360928.665686
20
311716.163076
30
80.470859
0
SEQEND
0
POLYLINE
8
Edges
66
1
70
0
62
0
999
RGB=255
0
VERTEX
8
Edges
10
361272.095013
20
311454.025410
30
91.295036
0
VERTEX
8
Edges
10
361236.157637
20
311419.221550
30
92.102469
0
SEQEND
0
POLYLINE
8
Edges
66
1
70
0
62
0
999
RGB=255
0
VERTEX
8
Edges
10
361265.953246
20
311459.956445
30
-152.654802
0
VERTEX
8
Edges
10
361227.782370
20
311427.309452
30
-158.807978
0
SEQEND
0
POLYLINE
8
Edges
66
1
70
0
62
0
999
RGB=255
0
VERTEX
8
Edges
10
361122.235899
20
311598.742674
30
83.618293
0
VERTEX
8
Edges
10
360928.665686
20
311716.163076
30
80.470859
0
SEQEND
0
POLYLINE
8
Edges
66
1
70
0
62
0
999
RGB=255
0
VERTEX
8
Edges
10
361122.235899
20
311598.742674
30
83.618293
0
VERTEX
8
Edges
10
361236.157637
20
311419.221550
30
92.102469
0
SEQEND
0
3DFACE
8
Surface
62
0
999
RGB=16756059
10
361122.235899
20
311598.742674
30
83.618293
11
360928.665686
21
311716.163076
31
80.470859
12
360972.376785
22
311743.459938
32
75.941550
13
360972.376785
23
311743.459938
33
75.941550
0
3DFACE
8
Surface
62
0
999
RGB=16756059
10
361272.095013
20
311454.025410
30
91.295036
11
361236.157637
21
311419.221550
31
92.102469
12
361122.235899
22
311598.742674
32
83.618293
13
361122.235899
23
311598.742674
33
83.618293
0
3DFACE
8
Surface
62
0
999
RGB=16756059
10
361117.322486
20
311603.487502
30
-156.919659
11
361227.782370
21
311427.309452
31
-158.807978
12
361265.953246
22
311459.956445
32
-152.654802
13
361265.953246
23
311459.956445
33
-152.654802
0
3DFACE
8
Surface
62
0
999
RGB=16756059
10
360968.691725
20
311747.018559
30
-161.184517
11
361078.224028
21
311571.736264
31
-164.623784
12
361117.322486
22
311603.487502
32
-156.919659
13
361117.322486
23
311603.487502
33
-156.919659
0
3DFACE
8
Surface
62
0
999
RGB=16756059
10
360968.691725
20
311747.018559
30
-159.478574
11
360928.665686
21
311716.163076
31
-170.439589
12
360968.691725
22
311747.018559
32
-161.184517
13
360968.691725
23
311747.018559
33
-161.184517
0
3DFACE
8
Surface
62
0
999
RGB=16756059
10
360972.376785
20
311743.459938
30
75.941550
11
360928.665686
21
311716.163076
31
80.470859
12
360968.691725
22
311747.018559
32
-159.478574
13
360968.691725
23
311747.018559
33
-159.478574
0
3DFACE
8
Surface
62
0
999
RGB=16756059
10
360928.665686
20
311716.163076
30
80.470859
11
361122.235899
21
311598.742674
31
83.618293
12
361096.171029
22
311554.405046
32
82.132518
13
361096.171029
23
311554.405046
33
82.132518
0
3DFACE
8
Surface
62
0
999
RGB=16756059
10
361096.171029
20
311554.405046
30
82.132518
11
361122.235899
21
311598.742674
31
83.618293
12
361236.157637
22
311419.221550
32
92.102469
13
361236.157637
23
311419.221550
33
92.102469
0
3DFACE
8
Surface
62
0
999
RGB=16756059
10
361227.782370
20
311427.309452
30
-158.807978
11
361117.322486
21
311603.487502
31
-156.919659
12
361078.224028
22
311571.736264
32
-164.623784
13
361078.224028
23
311571.736264
33
-164.623784
0
3DFACE
8
Surface
62
0
999
RGB=16756059
10
361078.224028
20
311571.736264
30
-164.623784
11
360968.691725
21
311747.018559
31
-161.184517
12
360928.665686
22
311716.163076
32
-170.439589
13
360928.665686
23
311716.163076
33
-170.439589
0
3DFACE
8
Surface
62
0
999
RGB=16756059
10
360928.665686
20
311716.163076
30
-170.439589
11
360968.691725
21
311747.018559
31
-159.478574
12
360928.665686
22
311716.163076
32
80.470859
13
360928.665686
23
311716.163076
33
80.470859
0
3DFACE
8
Surface
62
0
999
RGB=16756059
10
361265.953246
20
311459.956445
30
-152.654802
11
361236.157637
21
311419.221550
31
92.102469
12
361272.095013
22
311454.025410
32
91.295036
13
361272.095013
23
311454.025410
33
91.295036
0
3DFACE
8
Surface
62
0
999
RGB=16756059
10
361265.953246
20
311459.956445
30
-152.654802
11
361227.782370
21
311427.309452
31
-158.807978
12
361236.157637
22
311419.221550
32
92.102469
13
361236.157637
23
311419.221550
33
92.102469
0
POLYLINE
8
Edges
66
1
70
0
62
0
999
RGB=255
0
VERTEX
8
Edges
10
361299.274482
20
311497.286682
30
-147.543304
0
VERTEX
8
Edges
10
361265.953246
20
311459.956445
30
-152.654802
0
SEQEND
0
POLYLINE
8
Edges
66
1
70
0
62
0
999
RGB=255
0
VERTEX
8
Edges
10
361161.278196
20
311630.548146
30
83.486695
0
VERTEX
8
Edges
10
361122.235899
20
311598.742674
30
83.618293
0
SEQEND
0
POLYLINE
8
Edges
66
1
70
0
62
0
999
RGB=255
0
VERTEX
8
Edges
10
361156.867356
20
311634.807644
30
-151.043759
0
VERTEX
8
Edges
10
361117.322486
20
311603.487502
30
-156.919659
0
SEQEND
0
POLYLINE
8
Edges
66
1
70
0
62
0
999
RGB=255
0
VERTEX
8
Edges
10
361014.460230
20
311772.328607
30
-154.544214
0
VERTEX
8
Edges
10
360968.691725
20
311747.018559
30
-161.184517
0
SEQEND
0
POLYLINE
8
Edges
66
1
70
0
62
0
999
RGB=255
0
VERTEX
8
Edges
10
361014.460230
20
311772.328607
30
-154.544214
0
VERTEX
8
Edges
10
360968.691725
20
311747.018559
30
-159.478574
0
SEQEND
0
POLYLINE
8
Edges
66
1
70
0
62
0
999
RGB=255
0
VERTEX
8
Edges
10
361014.460230
20
311772.328607
30
-154.544214
0
VERTEX
8
Edges
10
361117.322486
20
311603.487502
30
-156.919659
0
SEQEND
0
POLYLINE
8
Edges
66
1
70
0
62
0
999
RGB=255
0
VERTEX
8
Edges
10
361156.867356
20
311634.807644
30
-151.043759
0
VERTEX
8
Edges
10
361265.953246
20
311459.956445
30
-152.654802
0
SEQEND
0
POLYLINE
8
Edges
66
1
70
0
62
0
999
RGB=255
0
VERTEX
8
Edges
10
361161.278196
20
311630.548146
30
83.486695
0
VERTEX
8
Edges
10
361272.095013
20
311454.025410
30
91.295036
0
SEQEND
0
POLYLINE
8
Edges
66
1
70
0
62
0
999
RGB=255
0
VERTEX
8
Edges
10
361306.835922
20
311489.984684
30
90.487604
0
VERTEX
8
Edges
10
361272.095013
20
311454.025410
30
91.295036
0
SEQEND
0
POLYLINE
8
Edges
66
1
70
0
62
0
999
RGB=255
0
VERTEX
8
Edges
10
361015.720470
20
311771.111607
30
76.485786
0
VERTEX
8
Edges
10
360972.376785
20
311743.459938
30
75.941550
0
SEQEND
0
POLYLINE
8
Edges
66
1
70
0
62
0
999
RGB=255
0
VERTEX
8
Edges
10
361014.460230
20
311772.328607
30
-154.544214
0
VERTEX
8
Edges
10
360972.376785
20
311743.459938
30
75.941550
0
SEQEND
0
POLYLINE
8
Edges
66
1
70
0
62
0
999
RGB=255
0
VERTEX
8
Edges
10
361015.720470
20
311771.111607
30
76.485786
0
VERTEX
8
Edges
10
361122.235899
20
311598.742674
30
83.618293
0
SEQEND
0
POLYLINE
8
Edges
66
1
70
0
62
0
999
RGB=255
0
VERTEX
8
Edges
10
361306.835922
20
311489.984684
30
90.487604
0
VERTEX
8
Edges
10
361265.953246
20
311459.956445
30
-152.654802
0
SEQEND
0
3DFACE
8
Surface
62
0
999
RGB=16756059
10
361161.278196
20
311630.548146
30
83.486695
11
361122.235899
21
311598.742674
31
83.618293
12
361015.720470
22
311771.111607
32
76.485786
13
361015.720470
23
311771.111607
33
76.485786
0
3DFACE
8
Surface
62
0
999
RGB=16756059
10
361306.835922
20
311489.984684
30
90.487604
11
361272.095013
21
311454.025410
31
91.295036
12
361161.278196
22
311630.548146
32
83.486695
13
361161.278196
23
311630.548146
33
83.486695
0
3DFACE
8
Surface
62
0
999
RGB=16756059
10
361299.274482
20
311497.286682
30
-147.543304
11
361265.953246
21
311459.956445
31
-152.654802
12
361306.835922
22
311489.984684
32
90.487604
13
361306.835922
23
311489.984684
33
90.487604
0
3DFACE
8
Surface
62
0
999
RGB=16756059
10
361156.867356
20
311634.807644
30
-151.043759
11
361265.953246
21
311459.956445
31
-152.654802
12
361299.274482
22
311497.286682
32
-147.543304
13
361299.274482
23
311497.286682
33
-147.543304
0
3DFACE
8
Surface
62
0
999
RGB=16756059
10
361014.460230
20
311772.328607
30
-154.544214
11
361117.322486
21
311603.487502
31
-156.919659
12
361156.867356
22
311634.807644
32
-151.043759
13
361156.867356
23
311634.807644
33
-151.043759
0
3DFACE
8
Surface
62
0
999
RGB=16756059
10
361015.720470
20
311771.111607
30
76.485786
11
360972.376785
21
311743.459938
31
75.941550
12
361014.460230
22
311772.328607
32
-154.544214
13
361014.460230
23
311772.328607
33
-154.544214
0
3DFACE
8
Surface
62
0
999
RGB=16756059
10
360972.376785
20
311743.459938
30
75.941550
11
361015.720470
21
311771.111607
31
76.485786
12
361122.235899
22
311598.742674
32
83.618293
13
361122.235899
23
311598.742674
33
83.618293
0
3DFACE
8
Surface
62
0
999
RGB=16756059
10
361122.235899
20
311598.742674
30
83.618293
11
361161.278196
21
311630.548146
31
83.486695
12
361272.095013
22
311454.025410
32
91.295036
13
361272.095013
23
311454.025410
33
91.295036
0
3DFACE
8
Surface
62
0
999
RGB=16756059
10
361272.095013
20
311454.025410
30
91.295036
11
361306.835922
21
311489.984684
31
90.487604
12
361265.953246
22
311459.956445
32
-152.654802
13
361265.953246
23
311459.956445
33
-152.654802
0
3DFACE
8
Surface
62
0
999
RGB=16756059
10
361265.953246
20
311459.956445
30
-152.654802
11
361156.867356
21
311634.807644
31
-151.043759
12
361117.322486
22
311603.487502
32
-156.919659
13
361117.322486
23
311603.487502
33
-156.919659
0
3DFACE
8
Surface
62
0
999
RGB=16756059
10
361117.322486
20
311603.487502
30
-156.919659
11
361014.460230
21
311772.328607
31
-154.544214
12
360968.691725
22
311747.018559
32
-161.184517
13
360968.691725
23
311747.018559
33
-161.184517
0
3DFACE
8
Surface
62
0
999
RGB=16756059
10
360968.691725
20
311747.018559
30
-161.184517
11
361014.460230
21
311772.328607
31
-154.544214
12
360968.691725
22
311747.018559
32
-159.478574
13
360968.691725
23
311747.018559
33
-159.478574
0
3DFACE
8
Surface
62
0
999
RGB=16756059
10
360968.691725
20
311747.018559
30
-159.478574
11
361014.460230
21
311772.328607
31
-154.544214
12
360972.376785
22
311743.459938
32
75.941550
13
360972.376785
23
311743.459938
33
75.941550
0
POLYLINE
8
Edges
66
1
70
0
62
0
999
RGB=255
0
VERTEX
8
Edges
10
361196.212577
20
311666.320586
30
-147.195360
0
VERTEX
8
Edges
10
361156.867356
20
311634.807644
30
-151.043759
0
SEQEND
0
POLYLINE
8
Edges
66
1
70
0
62
0
999
RGB=255
0
VERTEX
8
Edges
10
361332.531944
20
311534.678503
30
-140.017314
0
VERTEX
8
Edges
10
361299.274482
20
311497.286682
30
-147.543304
0
SEQEND
0
POLYLINE
8
Edges
66
1
70
0
62
0
999
RGB=255
0
VERTEX
8
Edges
10
361059.893209
20
311797.962669
30
-152.578895
0
VERTEX
8
Edges
10
361014.460230
20
311772.328607
30
-154.544214
0
SEQEND
0
POLYLINE
8
Edges
66
1
70
0
62
0
999
RGB=255
0
VERTEX
8
Edges
10
361217.532667
20
311645.732014
30
82.502125
0
VERTEX
8
Edges
10
361161.278196
20
311630.548146
30
83.486695
0
SEQEND
0
POLYLINE
8
Edges
66
1
70
0
62
0
999
RGB=255
0
VERTEX
8
Edges
10
361217.532667
20
311645.732014
30
82.502125
0
VERTEX
8
Edges
10
361306.835922
20
311489.984684
30
90.487604
0
SEQEND
0
POLYLINE
8
Edges
66
1
70
0
62
0
999
RGB=255
0
VERTEX
8
Edges
10
361196.212577
20
311666.320586
30
-147.195360
0
VERTEX
8
Edges
10
361299.274482
20
311497.286682
30
-147.543304
0
SEQEND
0
POLYLINE
8
Edges
66
1
70
0
62
0
999
RGB=255
0
VERTEX
8
Edges
10
361059.893209
20
311797.962669
30
-152.578895
0
VERTEX
8
Edges
10
361015.720470
20
311771.111607
30
76.485786
0
SEQEND
0
POLYLINE
8
Edges
66
1
70
0
62
0
999
RGB=255
0
VERTEX
8
Edges
10
361341.576831
20
311525.943957
30
87.885660
0
VERTEX
8
Edges
10
361306.835922
20
311489.984684
30
90.487604
0
SEQEND
0
POLYLINE
8
Edges
66
1
70
0
62
0
999
RGB=255
0
VERTEX
8
Edges
10
361056.016829
20
311801.706046
30
78.913102
0
VERTEX
8
Edges
10
361015.720470
20
311771.111607
30
76.485786
0
SEQEND
0
POLYLINE
8
Edges
66
1
70
0
62
0
999
RGB=255
0
VERTEX
8
Edges
10
361059.893209
20
311797.962669
30
-154.373407
0
VERTEX
8
Edges
10
361014.460230
20
311772.328607
30
-154.544214
0
SEQEND
0
POLYLINE
8
Edges
66
1
70
0
62
0
999
RGB=255
0
VERTEX
8
Edges
10
361059.893209
20
311797.962669
30
-154.373407
0
VERTEX
8
Edges
10
361156.867356
20
311634.807644
30
-151.043759
0
SEQEND
0
POLYLINE
8
Edges
66
1
70
0
62
0
999
RGB=255
0
VERTEX
8
Edges
10
361056.016829
20
311801.706046
30
78.913102
0
VERTEX
8
Edges
10
361161.278196
20
311630.548146
30
83.486695
0
SEQEND
0
POLYLINE
8
Edges
66
1
70
0
62
0
999
RGB=255
0
VERTEX
8
Edges
10
361341.576831
20
311525.943957
30
87.885660
0
VERTEX
8
Edges
10
361299.274482
20
311497.286682
30
-147.543304
0
SEQEND
0
3DFACE
8
Surface
62
0
999
RGB=16756059
10
361217.532667
20
311645.732014
30
82.502125
11
361161.278196
21
311630.548146
31
83.486695
12
361056.016829
22
311801.706046
32
78.913102
13
361056.016829
23
311801.706046
33
78.913102
0
3DFACE
8
Surface
62
0
999
RGB=16756059
10
361341.576831
20
311525.943957
30
87.885660
11
361306.835922
21
311489.984684
31
90.487604
12
361217.532667
22
311645.732014
32
82.502125
13
361217.532667
23
311645.732014
33
82.502125
0
3DFACE
8
Surface
62
0
999
RGB=16756059
10
361332.531944
20
311534.678503
30
-140.017314
11
361299.274482
21
311497.286682
31
-147.543304
12
361341.576831
22
311525.943957
32
87.885660
13
361341.576831
23
311525.943957
33
87.885660
0
3DFACE
8
Surface
62
0
999
RGB=16756059
10
361196.212577
20
311666.320586
30
-147.195360
11
361299.274482
21
311497.286682
31
-147.543304
12
361332.531944
22
311534.678503
32
-140.017314
13
361332.531944
23
311534.678503
33
-140.017314
0
3DFACE
8
Surface
62
0
999
RGB=16756059
10
361059.893209
20
311797.962669
30
-154.373407
11
361156.867356
21
311634.807644
31
-151.043759
12
361196.212577
22
311666.320586
32
-147.195360
13
361196.212577
23
311666.320586
33
-147.195360
0
3DFACE
8
Surface
62
0
999
RGB=16756059
10
361059.893209
20
311797.962669
30
-152.578895
11
361014.460230
21
311772.328607
31
-154.544214
12
361059.893209
22
311797.962669
32
-154.373407
13
361059.893209
23
311797.962669
33
-154.373407
0
3DFACE
8
Surface
62
0
999
RGB=16756059
10
361056.016829
20
311801.706046
30
78.913102
11
361015.720470
21
311771.111607
31
76.485786
12
361059.893209
22
311797.962669
32
-152.578895
13
361059.893209
23
311797.962669
33
-152.578895
0
3DFACE
8
Surface
62
0
999
RGB=16756059
10
361015.720470
20
311771.111607
30
76.485786
11
361056.016829
21
311801.706046
31
78.913102
12
361161.278196
22
311630.548146
32
83.486695
13
361161.278196
23
311630.548146
33
83.486695
0
3DFACE
8
Surface
62
0
999
RGB=16756059
10
361161.278196
20
311630.548146
30
83.486695
11
361217.532667
21
311645.732014
31
82.502125
12
361306.835922
22
311489.984684
32
90.487604
13
361306.835922
23
311489.984684
33
90.487604
0
3DFACE
8
Surface
62
0
999
RGB=16756059
10
361306.835922
20
311489.984684
30
90.487604
11
361341.576831
21
311525.943957
31
87.885660
12
361299.274482
22
311497.286682
32
-147.543304
13
361299.274482
23
311497.286682
33
-147.543304
0
3DFACE
8
Surface
62
0
999
RGB=16756059
10
361299.274482
20
311497.286682
30
-147.543304
11
361196.212577
21
311666.320586
31
-147.195360
12
361156.867356
22
311634.807644
32
-151.043759
13
361156.867356
23
311634.807644
33
-151.043759
0
3DFACE
8
Surface
62
0
999
RGB=16756059
10
361156.867356
20
311634.807644
30
-151.043759
11
361059.893209
21
311797.962669
31
-154.373407
12
361014.460230
22
311772.328607
32
-154.544214
13
361014.460230
23
311772.328607
33
-154.544214
0
3DFACE
8
Surface
62
0
999
RGB=16756059
10
361014.460230
20
311772.328607
30
-154.544214
11
361059.893209
21
311797.962669
31
-152.578895
12
361015.720470
22
311771.111607
32
76.485786
13
361015.720470
23
311771.111607
33
76.485786
0
POLYLINE
8
Edges
66
1
70
0
62
0
999
RGB=255
0
VERTEX
8
Edges
10
361237.958344
20
311695.515347
30
-140.976754
0
VERTEX
8
Edges
10
361196.212577
20
311666.320586
30
-147.195360
0
SEQEND
0
POLYLINE
8
Edges
66
1
70
0
62
0
999
RGB=255
0
VERTEX
8
Edges
10
361261.128577
20
311673.140113
30
85.195147
0
VERTEX
8
Edges
10
361217.532667
20
311645.732014
30
82.502125
0
SEQEND
0
POLYLINE
8
Edges
66
1
70
0
62
0
999
RGB=255
0
VERTEX
8
Edges
10
361104.895001
20
311824.013124
30
-144.654346
0
VERTEX
8
Edges
10
361059.893209
20
311797.962669
30
-154.373407
0
SEQEND
0
POLYLINE
8
Edges
66
1
70
0
62
0
999
RGB=255
0
VERTEX
8
Edges
10
361104.895001
20
311824.013124
30
76.001167
0
VERTEX
8
Edges
10
361056.016829
20
311801.706046
30
78.913102
0
SEQEND
0
POLYLINE
8
Edges
66
1
70
0
62
0
999
RGB=255
0
VERTEX
8
Edges
10
361104.895001
20
311824.013124
30
-144.654346
0
VERTEX
8
Edges
10
361059.893209
20
311797.962669
30
-152.578895
0
SEQEND
0
POLYLINE
8
Edges
66
1
70
0
62
0
999
RGB=255
0
VERTEX
8
Edges
10
361376.317740
20
311561.903231
30
88.872739
0
VERTEX
8
Edges
10
361217.532667
20
311645.732014
30
82.502125
0
SEQEND
0
POLYLINE
8
Edges
66
1
70
0
62
0
999
RGB=255
0
VERTEX
8
Edges
10
361237.958344
20
311695.515347
30
-140.976754
0
VERTEX
8
Edges
10
361332.531944
20
311534.678503
30
-140.017314
0
SEQEND
0
POLYLINE
8
Edges
66
1
70
0
62
0
999
RGB=255
0
VERTEX
8
Edges
10
361104.895001
20
311824.013124
30
-144.654346
0
VERTEX
8
Edges
10
361196.212577
20
311666.320586
30
-147.195360
0
SEQEND
0
POLYLINE
8
Edges
66
1
70
0
62
0
999
RGB=255
0
VERTEX
8
Edges
10
361104.895001
20
311824.013124
30
76.001167
0
VERTEX
8
Edges
10
361059.893209
20
311797.962669
30
-152.578895
0
SEQEND
0
POLYLINE
8
Edges
66
1
70
0
62
0
999
RGB=255
0
VERTEX
8
Edges
10
361376.317740
20
311561.903231
30
88.872739
0
VERTEX
8
Edges
10
361341.576831
20
311525.943957
30
87.885660
0
SEQEND
0
POLYLINE
8
Edges
66
1
70
0
62
0
999
RGB=255
0
VERTEX
8
Edges
10
361371.021686
20
311567.017571
30
-137.299162
0
VERTEX
8
Edges
10
361332.531944
20
311534.678503
30
-140.017314
0
SEQEND
0
POLYLINE
8
Edges
66
1
70
0
62
0
999
RGB=255
0
VERTEX
8
Edges
10
361104.895001
20
311824.013124
30
76.001167
0
VERTEX
8
Edges
10
361217.532667
20
311645.732014
30
82.502125
0
SEQEND
0
POLYLINE
8
Edges
66
1
70
0
62
0
999
RGB=255
0
VERTEX
8
Edges
10
361371.021686
20
311567.017571
30
-137.299162
0
VERTEX
8
Edges
10
361341.576831
20
311525.943957
30
87.885660
0
SEQEND
0
3DFACE
8
Surface
62
0
999
RGB=16756059
10
361261.128577
20
311673.140113
30
85.195147
11
361217.532667
21
311645.732014
31
82.502125
12
361104.895001
22
311824.013124
32
76.001167
13
361104.895001
23
311824.013124
33
76.001167
0
3DFACE
8
Surface
62
0
999
RGB=16756059
10
361376.317740
20
311561.903231
30
88.872739
11
361217.532667
21
311645.732014
31
82.502125
12
361261.128577
22
311673.140113
32
85.195147
13
361261.128577
23
311673.140113
33
85.195147
0
3DFACE
8
Surface
62
0
999
RGB=16756059
10
361371.021686
20
311567.017571
30
-137.299162
11
361341.576831
21
311525.943957
31
87.885660
12
361376.317740
22
311561.903231
32
88.872739
13
361376.317740
23
311561.903231
33
88.872739
0
3DFACE
8
Surface
62
0
999
RGB=16756059
10
361237.958344
20
311695.515347
30
-140.976754
11
361332.531944
21
311534.678503
31
-140.017314
12
361371.021686
22
311567.017571
32
-137.299162
13
361371.021686
23
311567.017571
33
-137.299162
0
3DFACE
8
Surface
62
0
999
RGB=16756059
10
361104.895001
20
311824.013124
30
-144.654346
11
361196.212577
21
311666.320586
31
-147.195360
12
361237.958344
22
311695.515347
32
-140.976754
13
361237.958344
23
311695.515347
33
-140.976754
0
3DFACE
8
Surface
62
0
999
RGB=16756059
10
361104.895001
20
311824.013124
30
76.001167
11
361059.893209
21
311797.962669
31
-152.578895
12
361104.895001
22
311824.013124
32
-144.654346
13
361104.895001
23
311824.013124
33
-144.654346
0
3DFACE
8
Surface
62
0
999
RGB=16756059
10
361056.016829
20
311801.706046
30
78.913102
11
361104.895001
21
311824.013124
31
76.001167
12
361217.532667
22
311645.732014
32
82.502125
13
361217.532667
23
311645.732014
33
82.502125
0
3DFACE
8
Surface
62
0
999
RGB=16756059
10
361217.532667
20
311645.732014
30
82.502125
11
361376.317740
21
311561.903231
31
88.872739
12
361341.576831
22
311525.943957
32
87.885660
13
361341.576831
23
311525.943957
33
87.885660
0
3DFACE
8
Surface
62
0
999
RGB=16756059
10
361341.576831
20
311525.943957
30
87.885660
11
361371.021686
21
311567.017571
31
-137.299162
12
361332.531944
22
311534.678503
32
-140.017314
13
361332.531944
23
311534.678503
33
-140.017314
0
3DFACE
8
Surface
62
0
999
RGB=16756059
10
361332.531944
20
311534.678503
30
-140.017314
11
361237.958344
21
311695.515347
31
-140.976754
12
361196.212577
22
311666.320586
32
-147.195360
13
361196.212577
23
311666.320586
33
-147.195360
0
3DFACE
8
Surface
62
0
999
RGB=16756059
10
361196.212577
20
311666.320586
30
-147.195360
11
361104.895001
21
311824.013124
31
-144.654346
12
361059.893209
22
311797.962669
32
-154.373407
13
361059.893209
23
311797.962669
33
-154.373407
0
3DFACE
8
Surface
62
0
999
RGB=16756059
10
361059.893209
20
311797.962669
30
-154.373407
11
361104.895001
21
311824.013124
31
-144.654346
12
361059.893209
22
311797.962669
32
-152.578895
13
361059.893209
23
311797.962669
33
-152.578895
0
3DFACE
8
Surface
62
0
999
RGB=16756059
10
361059.893209
20
311797.962669
30
-152.578895
11
361104.895001
21
311824.013124
31
76.001167
12
361056.016829
22
311801.706046
32
78.913102
13
361056.016829
23
311801.706046
33
78.913102
0
POLYLINE
8
Edges
66
1
70
0
62
0
999
RGB=255
0
VERTEX
8
Edges
10
361404.279149
20
311604.409392
30
-130.372006
0
VERTEX
8
Edges
10
361371.021686
20
311567.017571
30
-137.299162
0
SEQEND
0
POLYLINE
8
Edges
66
1
70
0
62
0
999
RGB=255
0
VERTEX
8
Edges
10
361302.586647
20
311702.612699
30
82.416065
0
VERTEX
8
Edges
10
361261.128577
20
311673.140113
30
85.195147
0
SEQEND
0
POLYLINE
8
Edges
66
1
70
0
62
0
999
RGB=255
0
VERTEX
8
Edges
10
361282.926097
20
311721.598672
30
-131.313547
0
VERTEX
8
Edges
10
361237.958344
20
311695.515347
30
-140.976754
0
SEQEND
0
POLYLINE
8
Edges
66
1
70
0
62
0
999
RGB=255
0
VERTEX
8
Edges
10
361161.573045
20
311838.787952
30
76.766824
0
VERTEX
8
Edges
10
361104.895001
20
311824.013124
30
76.001167
0
SEQEND
0
POLYLINE
8
Edges
66
1
70
0
62
0
999
RGB=255
0
VERTEX
8
Edges
10
361161.573045
20
311838.787952
30
-132.255087
0
VERTEX
8
Edges
10
361104.895001
20
311824.013124
30
-144.654346
0
SEQEND
0
POLYLINE
8
Edges
66
1
70
0
62
0
999
RGB=255
0
VERTEX
8
Edges
10
361161.573045
20
311838.787952
30
-132.255087
0
VERTEX
8
Edges
10
361237.958344
20
311695.515347
30
-140.976754
0
SEQEND
0
POLYLINE
8
Edges
66
1
70
0
62
0
999
RGB=255
0
VERTEX
8
Edges
10
361282.926097
20
311721.598672
30
-131.313547
0
VERTEX
8
Edges
10
361371.021686
20
311567.017571
30
-137.299162
0
SEQEND
0
POLYLINE
8
Edges
66
1
70
0
62
0
999
RGB=255
0
VERTEX
8
Edges
10
361161.573045
20
311838.787952
30
76.766824
0
VERTEX
8
Edges
10
361261.128577
20
311673.140113
30
85.195147
0
SEQEND
0
POLYLINE
8
Edges
66
1
70
0
62
0
999
RGB=255
0
VERTEX
8
Edges
10
361411.058649
20
311597.862505
30
89.948386
0
VERTEX
8
Edges
10
361376.317740
20
311561.903231
30
88.872739
0
SEQEND
0
POLYLINE
8
Edges
66
1
70
0
62
0
999
RGB=255
0
VERTEX
8
Edges
10
361161.573045
20
311838.787952
30
-132.255087
0
VERTEX
8
Edges
10
361104.895001
20
311824.013124
30
76.001167
0
SEQEND
0
POLYLINE
8
Edges
66
1
70
0
62
0
999
RGB=255
0
VERTEX
8
Edges
10
361411.058649
20
311597.862505
30
89.948386
0
VERTEX
8
Edges
10
361261.128577
20
311673.140113
30
85.195147
0
SEQEND
0
POLYLINE
8
Edges
66
1
70
0
62
0
999
RGB=255
0
VERTEX
8
Edges
10
361404.279149
20
311604.409392
30
-130.372006
0
VERTEX
8
Edges
10
361376.317740
20
311561.903231
30
88.872739
0
SEQEND
0
3DFACE
8
Surface
62
0
999
RGB=16756059
10
361302.586647
20
311702.612699
30
82.416065
11
361261.128577
21
311673.140113
31
85.195147
12
361161.573045
22
311838.787952
32
76.766824
13
361161.573045
23
311838.787952
33
76.766824
0
3DFACE
8
Surface
62
0
999
RGB=16756059
10
361411.058649
20
311597.862505
30
89.948386
11
361261.128577
21
311673.140113
31
85.195147
12
361302.586647
22
311702.612699
32
82.416065
13
361302.586647
23
311702.612699
33
82.416065
0
3DFACE
8
Surface
62
0
999
RGB=16756059
10
361404.279149
20
311604.409392
30
-130.372006
11
361376.317740
21
311561.903231
31
88.872739
12
361411.058649
22
311597.862505
32
89.948386
13
361411.058649
23
311597.862505
33
89.948386
0
3DFACE
8
Surface
62
0
999
RGB=16756059
10
361282.926097
20
311721.598672
30
-131.313547
11
361371.021686
21
311567.017571
31
-137.299162
12
361404.279149
22
311604.409392
32
-130.372006
13
361404.279149
23
311604.409392
33
-130.372006
0
3DFACE
8
Surface
62
0
999
RGB=16756059
10
361161.573045
20
311838.787952
30
-132.255087
11
361237.958344
21
311695.515347
31
-140.976754
12
361282.926097
22
311721.598672
32
-131.313547
13
361282.926097
23
311721.598672
33
-131.313547
0
3DFACE
8
Surface
62
0
999
RGB=16756059
10
361161.573045
20
311838.787952
30
76.766824
11
361104.895001
21
311824.013124
31
76.001167
12
361161.573045
22
311838.787952
32
-132.255087
13
361161.573045
23
311838.787952
33
-132.255087
0
3DFACE
8
Surface
62
0
999
RGB=16756059
10
361104.895001
20
311824.013124
30
76.001167
11
361161.573045
21
311838.787952
31
76.766824
12
361261.128577
22
311673.140113
32
85.195147
13
361261.128577
23
311673.140113
33
85.195147
0
3DFACE
8
Surface
62
0
999
RGB=16756059
10
361261.128577
20
311673.140113
30
85.195147
11
361411.058649
21
311597.862505
31
89.948386
12
361376.317740
22
311561.903231
32
88.872739
13
361376.317740
23
311561.903231
33
88.872739
0
3DFACE
8
Surface
62
0
999
RGB=16756059
10
361376.317740
20
311561.903231
30
88.872739
11
361404.279149
21
311604.409392
31
-130.372006
12
361371.021686
22
311567.017571
32
-137.299162
13
361371.021686
23
311567.017571
33
-137.299162
0
3DFACE
8
Surface
62
0
999
RGB=16756059
10
361371.021686
20
311567.017571
30
-137.299162
11
361282.926097
21
311721.598672
31
-131.313547
12
361237.958344
22
311695.515347
32
-140.976754
13
361237.958344
23
311695.515347
33
-140.976754
0
3DFACE
8
Surface
62
0
999
RGB=16756059
10
361237.958344
20
311695.515347
30
-140.976754
11
361161.573045
21
311838.787952
31
-132.255087
12
361104.895001
22
311824.013124
32
-144.654346
13
361104.895001
23
311824.013124
33
-144.654346
0
3DFACE
8
Surface
62
0
999
RGB=16756059
10
361104.895001
20
311824.013124
30
-144.654346
11
361161.573045
21
311838.787952
31
-132.255087
12
361104.895001
22
311824.013124
32
76.001167
13
361104.895001
23
311824.013124
33
76.001167
0
POLYLINE
8
Edges
66
1
70
0
62
0
999
RGB=255
0
VERTEX
8
Edges
10
361194.525243
20
311876.474564
30
77.573472
0
VERTEX
8
Edges
10
361161.573045
20
311838.787952
30
76.766824
0
SEQEND
0
POLYLINE
8
Edges
66
1
70
0
62
0
999
RGB=255
0
VERTEX
8
Edges
10
361446.927259
20
311632.732771
30
92.141247
0
VERTEX
8
Edges
10
361411.058649
20
311597.862505
30
89.948386
0
SEQEND
0
POLYLINE
8
Edges
66
1
70
0
62
0
999
RGB=255
0
VERTEX
8
Edges
10
361315.809329
20
311759.351884
30
-132.293544
0
VERTEX
8
Edges
10
361282.926097
20
311721.598672
30
-131.313547
0
SEQEND
0
POLYLINE
8
Edges
66
1
70
0
62
0
999
RGB=255
0
VERTEX
8
Edges
10
361191.247295
20
311879.640042
30
-137.301217
0
VERTEX
8
Edges
10
361161.573045
20
311838.787952
30
-132.255087
0
SEQEND
0
POLYLINE
8
Edges
66
1
70
0
62
0
999
RGB=255
0
VERTEX
8
Edges
10
361384.646242
20
311692.876850
30
92.141247
0
VERTEX
8
Edges
10
361302.586647
20
311702.612699
30
82.416065
0
SEQEND
0
POLYLINE
8
Edges
66
1
70
0
62
0
999
RGB=255
0
VERTEX
8
Edges
10
361384.646242
20
311692.876850
30
92.141247
0
VERTEX
8
Edges
10
361411.058649
20
311597.862505
30
89.948386
0
SEQEND
0
POLYLINE
8
Edges
66
1
70
0
62
0
999
RGB=255
0
VERTEX
8
Edges
10
361315.809329
20
311759.351884
30
-132.293544
0
VERTEX
8
Edges
10
361161.573045
20
311838.787952
30
-132.255087
0
SEQEND
0
POLYLINE
8
Edges
66
1
70
0
62
0
999
RGB=255
0
VERTEX
8
Edges
10
361440.371363
20
311639.063726
30
-127.285871
0
VERTEX
8
Edges
10
361404.279149
20
311604.409392
30
-130.372006
0
SEQEND
0
POLYLINE
8
Edges
66
1
70
0
62
0
999
RGB=255
0
VERTEX
8
Edges
10
361321.054046
20
311754.287120
30
79.394444
0
VERTEX
8
Edges
10
361302.586647
20
311702.612699
30
82.416065
0
SEQEND
0
POLYLINE
8
Edges
66
1
70
0
62
0
999
RGB=255
0
VERTEX
8
Edges
10
361191.247295
20
311879.640042
30
-137.301217
0
VERTEX
8
Edges
10
361161.573045
20
311838.787952
30
76.766824
0
SEQEND
0
POLYLINE
8
Edges
66
1
70
0
62
0
999
RGB=255
0
VERTEX
8
Edges
10
361321.054046
20
311754.287120
30
79.394444
0
VERTEX
8
Edges
10
361161.573045
20
311838.787952
30
76.766824
0
SEQEND
0
POLYLINE
8
Edges
66
1
70
0
62
0
999
RGB=255
0
VERTEX
8
Edges
10
361315.809329
20
311759.351884
30
-132.293544
0
VERTEX
8
Edges
10
361404.279149
20
311604.409392
30
-130.372006
0
SEQEND
0
POLYLINE
8
Edges
66
1
70
0
62
0
999
RGB=255
0
VERTEX
8
Edges
10
361440.371363
20
311639.063726
30
-127.285871
0
VERTEX
8
Edges
10
361411.058649
20
311597.862505
30
89.948386
0
SEQEND
0
3DFACE
8
Surface
62
0
999
RGB=16756059
10
361321.054046
20
311754.287120
30
79.394444
11
361161.573045
21
311838.787952
31
76.766824
12
361194.525243
22
311876.474564
32
77.573472
13
361194.525243
23
311876.474564
33
77.573472
0
3DFACE
8
Surface
62
0
999
RGB=16756059
10
361384.646242
20
311692.876850
30
92.141247
11
361302.586647
21
311702.612699
31
82.416065
12
361321.054046
22
311754.287120
32
79.394444
13
361321.054046
23
311754.287120
33
79.394444
0
3DFACE
8
Surface
62
0
999
RGB=16756059
10
361446.927259
20
311632.732771
30
92.141247
11
361411.058649
21
311597.862505
31
89.948386
12
361384.646242
22
311692.876850
32
92.141247
13
361384.646242
23
311692.876850
33
92.141247
0
3DFACE
8
Surface
62
0
999
RGB=16756059
10
361440.371363
20
311639.063726
30
-127.285871
11
361411.058649
21
311597.862505
31
89.948386
12
361446.927259
22
311632.732771
32
92.141247
13
361446.927259
23
311632.732771
33
92.141247
0
3DFACE
8
Surface
62
0
999
RGB=16756059
10
361315.809329
20
311759.351884
30
-132.293544
11
361404.279149
21
311604.409392
31
-130.372006
12
361440.371363
22
311639.063726
32
-127.285871
13
361440.371363
23
311639.063726
33
-127.285871
0
3DFACE
8
Surface
62
0
999
RGB=16756059
10
361191.247295
20
311879.640042
30
-137.301217
11
361161.573045
21
311838.787952
31
-132.255087
12
361315.809329
22
311759.351884
32
-132.293544
13
361315.809329
23
311759.351884
33
-132.293544
0
3DFACE
8
Surface
62
0
999
RGB=16756059
10
361194.525243
20
311876.474564
30
77.573472
11
361161.573045
21
311838.787952
31
76.766824
12
361191.247295
22
311879.640042
32
-137.301217
13
361191.247295
23
311879.640042
33
-137.301217
0
3DFACE
8
Surface
62
0
999
RGB=16756059
10
361161.573045
20
311838.787952
30
76.766824
11
361321.054046
21
311754.287120
31
79.394444
12
361302.586647
22
311702.612699
32
82.416065
13
361302.586647
23
311702.612699
33
82.416065
0
3DFACE
8
Surface
62
0
999
RGB=16756059
10
361302.586647
20
311702.612699
30
82.416065
11
361384.646242
21
311692.876850
31
92.141247
12
361411.058649
22
311597.862505
32
89.948386
13
361411.058649
23
311597.862505
33
89.948386
0
3DFACE
8
Surface
62
0
999
RGB=16756059
10
361411.058649
20
311597.862505
30
89.948386
11
361440.371363
21
311639.063726
31
-127.285871
12
361404.279149
22
311604.409392
32
-130.372006
13
361404.279149
23
311604.409392
33
-130.372006
0
3DFACE
8
Surface
62
0
999
RGB=16756059
10
361404.279149
20
311604.409392
30
-130.372006
11
361315.809329
21
311759.351884
31
-132.293544
12
361282.926097
22
311721.598672
32
-131.313547
13
361282.926097
23
311721.598672
33
-131.313547
0
3DFACE
8
Surface
62
0
999
RGB=16756059
10
361282.926097
20
311721.598672
30
-131.313547
11
361315.809329
21
311759.351884
31
-132.293544
12
361161.573045
22
311838.787952
32
-132.255087
13
361161.573045
23
311838.787952
33
-132.255087
0
3DFACE
8
Surface
62
0
999
RGB=16756059
10
361161.573045
20
311838.787952
30
-132.255087
11
361191.247295
21
311879.640042
31
-137.301217
12
361161.573045
22
311838.787952
32
76.766824
13
361161.573045
23
311838.787952
33
76.766824
0
POLYLINE
8
Edges
66
1
70
0
62
0
999
RGB=255
0
VERTEX
8
Edges
10
361474.169702
20
311675.933229
30
-124.153769
0
VERTEX
8
Edges
10
361440.371363
20
311639.063726
30
-127.285871
0
SEQEND
0
POLYLINE
8
Edges
66
1
70
0
62
0
999
RGB=255
0
VERTEX
8
Edges
10
361366.235922
20
311780.163669
30
-129.882391
0
VERTEX
8
Edges
10
361315.809329
20
311759.351884
30
-132.293544
0
SEQEND
0
POLYLINE
8
Edges
66
1
70
0
62
0
999
RGB=255
0
VERTEX
8
Edges
10
361260.364570
20
311882.402445
30
77.302765
0
VERTEX
8
Edges
10
361194.525243
20
311876.474564
30
77.573472
0
SEQEND
0
POLYLINE
8
Edges
66
1
70
0
62
0
999
RGB=255
0
VERTEX
8
Edges
10
361258.302141
20
311884.394109
30
-135.611013
0
VERTEX
8
Edges
10
361191.247295
20
311879.640042
30
-137.301217
0
SEQEND
0
POLYLINE
8
Edges
66
1
70
0
62
0
999
RGB=255
0
VERTEX
8
Edges
10
361389.610116
20
311757.591472
30
86.850468
0
VERTEX
8
Edges
10
361321.054046
20
311754.287120
30
79.394444
0
SEQEND
0
POLYLINE
8
Edges
66
1
70
0
62
0
999
RGB=255
0
VERTEX
8
Edges
10
361258.302141
20
311884.394109
30
-135.611013
0
VERTEX
8
Edges
10
361315.809329
20
311759.351884
30
-132.293544
0
SEQEND
0
POLYLINE
8
Edges
66
1
70
0
62
0
999
RGB=255
0
VERTEX
8
Edges
10
361366.235922
20
311780.163669
30
-129.882391
0
VERTEX
8
Edges
10
361440.371363
20
311639.063726
30
-127.285871
0
SEQEND
0
POLYLINE
8
Edges
66
1
70
0
62
0
999
RGB=255
0
VERTEX
8
Edges
10
361482.419418
20
311667.966571
30
91.624320
0
VERTEX
8
Edges
10
361446.927259
20
311632.732771
30
92.141247
0
SEQEND
0
POLYLINE
8
Edges
66
1
70
0
62
0
999
RGB=255
0
VERTEX
8
Edges
10
361389.610116
20
311757.591472
30
86.850468
0
VERTEX
8
Edges
10
361384.646242
20
311692.876850
30
92.141247
0
SEQEND
0
POLYLINE
8
Edges
66
1
70
0
62
0
999
RGB=255
0
VERTEX
8
Edges
10
361260.364570
20
311882.402445
30
77.302765
0
VERTEX
8
Edges
10
361321.054046
20
311754.287120
30
79.394444
0
SEQEND
0
POLYLINE
8
Edges
66
1
70
0
62
0
999
RGB=255
0
VERTEX
8
Edges
10
361260.364570
20
311882.402445
30
77.302765
0
VERTEX
8
Edges
10
361191.247295
20
311879.640042
30
-137.301217
0
SEQEND
0
POLYLINE
8
Edges
66
1
70
0
62
0
999
RGB=255
0
VERTEX
8
Edges
10
361482.419418
20
311667.966571
30
91.624320
0
VERTEX
8
Edges
10
361440.371363
20
311639.063726
30
-127.285871
0
SEQEND
0
3DFACE
8
Surface
62
0
999
RGB=16756059
10
361389.610116
20
311757.591472
30
86.850468
11
361321.054046
21
311754.287120
31
79.394444
12
361260.364570
22
311882.402445
32
77.302765
13
361260.364570
23
311882.402445
33
77.302765
0
3DFACE
8
Surface
62
0
999
RGB=16756059
10
361474.169702
20
311675.933229
30
-124.153769
11
361440.371363
21
311639.063726
31
-127.285871
12
361482.419418
22
311667.966571
32
91.624320
13
361482.419418
23
311667.966571
33
91.624320
0
3DFACE
8
Surface
62
0
999
RGB=16756059
10
361366.235922
20
311780.163669
30
-129.882391
11
361440.371363
21
311639.063726
31
-127.285871
12
361474.169702
22
311675.933229
32
-124.153769
13
361474.169702
23
311675.933229
33
-124.153769
0
3DFACE
8
Surface
62
0
999
RGB=16756059
10
361258.302141
20
311884.394109
30
-135.611013
11
361315.809329
21
311759.351884
31
-132.293544
12
361366.235922
22
311780.163669
32
-129.882391
13
361366.235922
23
311780.163669
33
-129.882391
0
3DFACE
8
Surface
62
0
999
RGB=16756059
10
361260.364570
20
311882.402445
30
77.302765
11
361191.247295
21
311879.640042
31
-137.301217
12
361258.302141
22
311884.394109
32
-135.611013
13
361258.302141
23
311884.394109
33
-135.611013
0
3DFACE
8
Surface
62
0
999
RGB=16756059
10
361194.525243
20
311876.474564
30
77.573472
11
361260.364570
21
311882.402445
31
77.302765
12
361321.054046
22
311754.287120
32
79.394444
13
361321.054046
23
311754.287120
33
79.394444
0
3DFACE
8
Surface
62
0
999
RGB=16756059
10
361321.054046
20
311754.287120
30
79.394444
11
361389.610116
21
311757.591472
31
86.850468
12
361384.646242
22
311692.876850
32
92.141247
13
361384.646242
23
311692.876850
33
92.141247
0
3DFACE
8
Surface
62
0
999
RGB=16756059
10
361446.927259
20
311632.732771
30
92.141247
11
361482.419418
21
311667.966571
31
91.624320
12
361440.371363
22
311639.063726
32
-127.285871
13
361440.371363
23
311639.063726
33
-127.285871
0
3DFACE
8
Surface
62
0
999
RGB=16756059
10
361440.371363
20
311639.063726
30
-127.285871
11
361366.235922
21
311780.163669
31
-129.882391
12
361315.809329
22
311759.351884
32
-132.293544
13
361315.809329
23
311759.351884
33
-132.293544
0
3DFACE
8
Surface
62
0
999
RGB=16756059
10
361315.809329
20
311759.351884
30
-132.293544
11
361258.302141
21
311884.394109
31
-135.611013
12
361191.247295
22
311879.640042
32
-137.301217
13
361191.247295
23
311879.640042
33
-137.301217
0
3DFACE
8
Surface
62
0
999
RGB=16756059
10
361191.247295
20
311879.640042
30
-137.301217
11
361260.364570
21
311882.402445
31
77.302765
12
361194.525243
22
311876.474564
32
77.573472
13
361194.525243
23
311876.474564
33
77.573472
0
3DFACE
8
Surface
62
0
999
RGB=16756059
10
361482.419418
20
311667.966571
30
91.624320
11
361384.646242
21
311692.876850
31
92.141247
12
361389.610116
22
311757.591472
32
86.850468
13
361389.610116
23
311757.591472
33
86.850468
0
3DFACE
8
Surface
62
0
999
RGB=16756059
10
361482.419418
20
311667.966571
30
91.624320
11
361446.927259
21
311632.732771
31
92.141247
12
361384.646242
22
311692.876850
32
92.141247
13
361384.646242
23
311692.876850
33
92.141247
0
POLYLINE
8
Edges
66
1
70
0
62
0
999
RGB=255
0
VERTEX
8
Edges
10
361319.431172
20
311894.870671
30
78.208251
0
VERTEX
8
Edges
10
361260.364570
20
311882.402445
30
77.302765
0
SEQEND
0
POLYLINE
8
Edges
66
1
70
0
62
0
999
RGB=255
0
VERTEX
8
Edges
10
361318.711809
20
311895.565352
30
-123.600787
0
VERTEX
8
Edges
10
361258.302141
20
311884.394109
30
-135.611013
0
SEQEND
0
POLYLINE
8
Edges
66
1
70
0
62
0
999
RGB=255
0
VERTEX
8
Edges
10
361318.711809
20
311895.565352
30
-123.600787
0
VERTEX
8
Edges
10
361366.235922
20
311780.163669
30
-129.882391
0
SEQEND
0
POLYLINE
8
Edges
66
1
70
0
62
0
999
RGB=255
0
VERTEX
8
Edges
10
361319.431172
20
311894.870671
30
78.208251
0
VERTEX
8
Edges
10
361389.610116
20
311757.591472
30
86.850468
0
SEQEND
0
POLYLINE
8
Edges
66
1
70
0
62
0
999
RGB=255
0
VERTEX
8
Edges
10
361517.255987
20
311703.833468
30
89.197852
0
VERTEX
8
Edges
10
361482.419418
20
311667.966571
30
91.624320
0
SEQEND
0
POLYLINE
8
Edges
66
1
70
0
62
0
999
RGB=255
0
VERTEX
8
Edges
10
361510.062357
20
311710.780275
30
-119.604569
0
VERTEX
8
Edges
10
361474.169702
20
311675.933229
30
-124.153769
0
SEQEND
0
POLYLINE
8
Edges
66
1
70
0
62
0
999
RGB=255
0
VERTEX
8
Edges
10
361430.932431
20
311787.195156
30
87.199743
0
VERTEX
8
Edges
10
361389.610116
20
311757.591472
30
86.850468
0
SEQEND
0
POLYLINE
8
Edges
66
1
70
0
62
0
999
RGB=255
0
VERTEX
8
Edges
10
361430.932431
20
311787.195156
30
87.199743
0
VERTEX
8
Edges
10
361482.419418
20
311667.966571
30
91.624320
0
SEQEND
0
POLYLINE
8
Edges
66
1
70
0
62
0
999
RGB=255
0
VERTEX
8
Edges
10
361318.711809
20
311895.565352
30
-123.600787
0
VERTEX
8
Edges
10
361260.364570
20
311882.402445
30
77.302765
0
SEQEND
0
POLYLINE
8
Edges
66
1
70
0
62
0
999
RGB=255
0
VERTEX
8
Edges
10
361318.711809
20
311895.565352
30
-123.600787
0
VERTEX
8
Edges
10
361474.169702
20
311675.933229
30
-124.153769
0
SEQEND
0
3DFACE
8
Surface
62
0
999
RGB=16756059
10
361430.932431
20
311787.195156
30
87.199743
11
361389.610116
21
311757.591472
31
86.850468
12
361319.431172
22
311894.870671
32
78.208251
13
361319.431172
23
311894.870671
33
78.208251
0
3DFACE
8
Surface
62
0
999
RGB=16756059
10
361517.255987
20
311703.833468
30
89.197852
11
361482.419418
21
311667.966571
31
91.624320
12
361430.932431
22
311787.195156
32
87.199743
13
361430.932431
23
311787.195156
33
87.199743
0
3DFACE
8
Surface
62
0
999
RGB=16756059
10
361318.711809
20
311895.565352
30
-123.600787
11
361474.169702
21
311675.933229
31
-124.153769
12
361510.062357
22
311710.780275
32
-119.604569
13
361510.062357
23
311710.780275
33
-119.604569
0
3DFACE
8
Surface
62
0
999
RGB=16756059
10
361319.431172
20
311894.870671
30
78.208251
11
361260.364570
21
311882.402445
31
77.302765
12
361318.711809
22
311895.565352
32
-123.600787
13
361318.711809
23
311895.565352
33
-123.600787
0
3DFACE
8
Surface
62
0
999
RGB=16756059
10
361260.364570
20
311882.402445
30
77.302765
11
361319.431172
21
311894.870671
31
78.208251
12
361389.610116
22
311757.591472
32
86.850468
13
361389.610116
23
311757.591472
33
86.850468
0
3DFACE
8
Surface
62
0
999
RGB=16756059
10
361389.610116
20
311757.591472
30
86.850468
11
361430.932431
21
311787.195156
31
87.199743
12
361482.419418
22
311667.966571
32
91.624320
13
361482.419418
23
311667.966571
33
91.624320
0
3DFACE
8
Surface
62
0
999
RGB=16756059
10
361474.169702
20
311675.933229
30
-124.153769
11
361318.711809
21
311895.565352
31
-123.600787
12
361366.235922
22
311780.163669
32
-129.882391
13
361366.235922
23
311780.163669
33
-129.882391
0
3DFACE
8
Surface
62
0
999
RGB=16756059
10
361366.235922
20
311780.163669
30
-129.882391
11
361318.711809
21
311895.565352
31
-123.600787
12
361258.302141
22
311884.394109
32
-135.611013
13
361258.302141
23
311884.394109
33
-135.611013
0
3DFACE
8
Surface
62
0
999
RGB=16756059
10
361258.302141
20
311884.394109
30
-135.611013
11
361318.711809
21
311895.565352
31
-123.600787
12
361260.364570
22
311882.402445
32
77.302765
13
361260.364570
23
311882.402445
33
77.302765
0
3DFACE
8
Surface
62
0
999
RGB=16756059
10
361510.062357
20
311710.780275
30
-119.604569
11
361482.419418
21
311667.966571
31
91.624320
12
361517.255987
22
311703.833468
32
89.197852
13
361517.255987
23
311703.833468
33
89.197852
0
3DFACE
8
Surface
62
0
999
RGB=16756059
10
361510.062357
20
311710.780275
30
-119.604569
11
361474.169702
21
311675.933229
31
-124.153769
12
361482.419418
22
311667.966571
32
91.624320
13
361482.419418
23
311667.966571
33
91.624320
0
POLYLINE
8
Edges
66
1
70
0
62
0
999
RGB=255
0
VERTEX
8
Edges
10
361544.580059
20
311746.955097
30
-115.724947
0
VERTEX
8
Edges
10
361510.062357
20
311710.780275
30
-119.604569
0
SEQEND
0
POLYLINE
8
Edges
66
1
70
0
62
0
999
RGB=255
0
VERTEX
8
Edges
10
361473.211345
20
311815.875063
30
86.682815
0
VERTEX
8
Edges
10
361430.932431
20
311787.195156
30
87.199743
0
SEQEND
0
POLYLINE
8
Edges
66
1
70
0
62
0
999
RGB=255
0
VERTEX
8
Edges
10
361381.558892
20
311904.382809
30
78.336104
0
VERTEX
8
Edges
10
361319.431172
20
311894.870671
30
78.208251
0
SEQEND
0
POLYLINE
8
Edges
66
1
70
0
62
0
999
RGB=255
0
VERTEX
8
Edges
10
361381.558892
20
311904.382809
30
78.336104
0
VERTEX
8
Edges
10
361430.932431
20
311787.195156
30
87.199743
0
SEQEND
0
POLYLINE
8
Edges
66
1
70
0
62
0
999
RGB=255
0
VERTEX
8
Edges
10
361551.341306
20
311740.425837
30
91.899510
0
VERTEX
8
Edges
10
361517.255987
20
311703.833468
30
89.197852
0
SEQEND
0
POLYLINE
8
Edges
66
1
70
0
62
0
999
RGB=255
0
VERTEX
8
Edges
10
361377.051394
20
311908.735649
30
-121.984981
0
VERTEX
8
Edges
10
361318.711809
20
311895.565352
30
-123.600787
0
SEQEND
0
POLYLINE
8
Edges
66
1
70
0
62
0
999
RGB=255
0
VERTEX
8
Edges
10
361551.341306
20
311740.425837
30
91.899510
0
VERTEX
8
Edges
10
361430.932431
20
311787.195156
30
87.199743
0
SEQEND
0
POLYLINE
8
Edges
66
1
70
0
62
0
999
RGB=255
0
VERTEX
8
Edges
10
361381.558892
20
311904.382809
30
78.336104
0
VERTEX
8
Edges
10
361318.711809
20
311895.565352
30
-123.600787
0
SEQEND
0
POLYLINE
8
Edges
66
1
70
0
62
0
999
RGB=255
0
VERTEX
8
Edges
10
361544.580059
20
311746.955097
30
-115.724947
0
VERTEX
8
Edges
10
361517.255987
20
311703.833468
30
89.197852
0
SEQEND
0
POLYLINE
8
Edges
66
1
70
0
62
0
999
RGB=255
0
VERTEX
8
Edges
10
361377.051394
20
311908.735649
30
-121.984981
0
VERTEX
8
Edges
10
361510.062357
20
311710.780275
30
-119.604569
0
SEQEND
0
3DFACE
8
Surface
62
0
999
RGB=16756059
10
361473.211345
20
311815.875063
30
86.682815
11
361430.932431
21
311787.195156
31
87.199743
12
361381.558892
22
311904.382809
32
78.336104
13
361381.558892
23
311904.382809
33
78.336104
0
3DFACE
8
Surface
62
0
999
RGB=16756059
10
361551.341306
20
311740.425837
30
91.899510
11
361430.932431
21
311787.195156
31
87.199743
12
361473.211345
22
311815.875063
32
86.682815
13
361473.211345
23
311815.875063
33
86.682815
0
3DFACE
8
Surface
62
0
999
RGB=16756059
10
361544.580059
20
311746.955097
30
-115.724947
11
361517.255987
21
311703.833468
31
89.197852
12
361551.341306
22
311740.425837
32
91.899510
13
361551.341306
23
311740.425837
33
91.899510
0
3DFACE
8
Surface
62
0
999
RGB=16756059
10
361377.051394
20
311908.735649
30
-121.984981
11
361510.062357
21
311710.780275
31
-119.604569
12
361544.580059
22
311746.955097
32
-115.724947
13
361544.580059
23
311746.955097
33
-115.724947
0
3DFACE
8
Surface
62
0
999
RGB=16756059
10
361381.558892
20
311904.382809
30
78.336104
11
361318.711809
21
311895.565352
31
-123.600787
12
361377.051394
22
311908.735649
32
-121.984981
13
361377.051394
23
311908.735649
33
-121.984981
0
3DFACE
8
Surface
62
0
999
RGB=16756059
10
361319.431172
20
311894.870671
30
78.208251
11
361381.558892
21
311904.382809
31
78.336104
12
361430.932431
22
311787.195156
32
87.199743
13
361430.932431
23
311787.195156
33
87.199743
0
3DFACE
8
Surface
62
0
999
RGB=16756059
10
361430.932431
20
311787.195156
30
87.199743
11
361551.341306
21
311740.425837
31
91.899510
12
361517.255987
22
311703.833468
32
89.197852
13
361517.255987
23
311703.833468
33
89.197852
0
3DFACE
8
Surface
62
0
999
RGB=16756059
10
361517.255987
20
311703.833468
30
89.197852
11
361544.580059
21
311746.955097
31
-115.724947
12
361510.062357
22
311710.780275
32
-119.604569
13
361510.062357
23
311710.780275
33
-119.604569
0
3DFACE
8
Surface
62
0
999
RGB=16756059
10
361510.062357
20
311710.780275
30
-119.604569
11
361377.051394
21
311908.735649
31
-121.984981
12
361318.711809
22
311895.565352
32
-123.600787
13
361318.711809
23
311895.565352
33
-123.600787
0
3DFACE
8
Surface
62
0
999
RGB=16756059
10
361318.711809
20
311895.565352
30
-123.600787
11
361381.558892
21
311904.382809
31
78.336104
12
361319.431172
22
311894.870671
32
78.208251
13
361319.431172
23
311894.870671
33
78.208251
0
POLYLINE
8
Edges
66
1
70
0
62
0
999
RGB=255
0
VERTEX
8
Edges
10
361585.362852
20
311777.079792
30
87.342080
0
VERTEX
8
Edges
10
361551.341306
20
311740.425837
30
91.899510
0
SEQEND
0
POLYLINE
8
Edges
66
1
70
0
62
0
999
RGB=255
0
VERTEX
8
Edges
10
361578.314625
20
311783.886185
30
-110.605364
0
VERTEX
8
Edges
10
361544.580059
20
311746.955097
30
-115.724947
0
SEQEND
0
POLYLINE
8
Edges
66
1
70
0
62
0
999
RGB=255
0
VERTEX
8
Edges
10
361525.061359
20
311835.312267
30
86.254457
0
VERTEX
8
Edges
10
361473.211345
20
311815.875063
30
86.682815
0
SEQEND
0
POLYLINE
8
Edges
66
1
70
0
62
0
999
RGB=255
0
VERTEX
8
Edges
10
361449.097140
20
311908.670060
30
79.728717
0
VERTEX
8
Edges
10
361381.558892
20
311904.382809
30
78.336104
0
SEQEND
0
POLYLINE
8
Edges
66
1
70
0
62
0
999
RGB=255
0
VERTEX
8
Edges
10
361446.747731
20
311910.938858
30
-108.430117
0
VERTEX
8
Edges
10
361377.051394
20
311908.735649
30
-121.984981
0
SEQEND
0
POLYLINE
8
Edges
66
1
70
0
62
0
999
RGB=255
0
VERTEX
8
Edges
10
361449.097140
20
311908.670060
30
79.728717
0
VERTEX
8
Edges
10
361473.211345
20
311815.875063
30
86.682815
0
SEQEND
0
POLYLINE
8
Edges
66
1
70
0
62
0
999
RGB=255
0
VERTEX
8
Edges
10
361525.061359
20
311835.312267
30
86.254457
0
VERTEX
8
Edges
10
361551.341306
20
311740.425837
30
91.899510
0
SEQEND
0
POLYLINE
8
Edges
66
1
70
0
62
0
999
RGB=255
0
VERTEX
8
Edges
10
361446.747731
20
311910.938858
30
-108.430117
0
VERTEX
8
Edges
10
361381.558892
20
311904.382809
30
78.336104
0
SEQEND
0
POLYLINE
8
Edges
66
1
70
0
62
0
999
RGB=255
0
VERTEX
8
Edges
10
361446.747731
20
311910.938858
30
-108.430117
0
VERTEX
8
Edges
10
361544.580059
20
311746.955097
30
-115.724947
0
SEQEND
0
POLYLINE
8
Edges
66
1
70
0
62
0
999
RGB=255
0
VERTEX
8
Edges
10
361585.362852
20
311777.079792
30
87.342080
0
VERTEX
8
Edges
10
361544.580059
20
311746.955097
30
-115.724947
0
SEQEND
0
3DFACE
8
Surface
62
0
999
RGB=16756059
10
361525.061359
20
311835.312267
30
86.254457
11
361473.211345
21
311815.875063
31
86.682815
12
361449.097140
22
311908.670060
32
79.728717
13
361449.097140
23
311908.670060
33
79.728717
0
3DFACE
8
Surface
62
0
999
RGB=16756059
10
361585.362852
20
311777.079792
30
87.342080
11
361551.341306
21
311740.425837
31
91.899510
12
361525.061359
22
311835.312267
32
86.254457
13
361525.061359
23
311835.312267
33
86.254457
0
3DFACE
8
Surface
62
0
999
RGB=16756059
10
361578.314625
20
311783.886185
30
-110.605364
11
361544.580059
21
311746.955097
31
-115.724947
12
361585.362852
22
311777.079792
32
87.342080
13
361585.362852
23
311777.079792
33
87.342080
0
3DFACE
8
Surface
62
0
999
RGB=16756059
10
361446.747731
20
311910.938858
30
-108.430117
11
361544.580059
21
311746.955097
31
-115.724947
12
361578.314625
22
311783.886185
32
-110.605364
13
361578.314625
23
311783.886185
33
-110.605364
0
3DFACE
8
Surface
62
0
999
RGB=16756059
10
361449.097140
20
311908.670060
30
79.728717
11
361381.558892
21
311904.382809
31
78.336104
12
361446.747731
22
311910.938858
32
-108.430117
13
361446.747731
23
311910.938858
33
-108.430117
0
3DFACE
8
Surface
62
0
999
RGB=16756059
10
361381.558892
20
311904.382809
30
78.336104
11
361449.097140
21
311908.670060
31
79.728717
12
361473.211345
22
311815.875063
32
86.682815
13
361473.211345
23
311815.875063
33
86.682815
0
3DFACE
8
Surface
62
0
999
RGB=16756059
10
361473.211345
20
311815.875063
30
86.682815
11
361525.061359
21
311835.312267
31
86.254457
12
361551.341306
22
311740.425837
32
91.899510
13
361551.341306
23
311740.425837
33
91.899510
0
3DFACE
8
Surface
62
0
999
RGB=16756059
10
361551.341306
20
311740.425837
30
91.899510
11
361585.362852
21
311777.079792
31
87.342080
12
361544.580059
22
311746.955097
32
-115.724947
13
361544.580059
23
311746.955097
33
-115.724947
0
3DFACE
8
Surface
62
0
999
RGB=16756059
10
361544.580059
20
311746.955097
30
-115.724947
11
361446.747731
21
311910.938858
31
-108.430117
12
361377.051394
22
311908.735649
32
-121.984981
13
361377.051394
23
311908.735649
33
-121.984981
0
3DFACE
8
Surface
62
0
999
RGB=16756059
10
361377.051394
20
311908.735649
30
-121.984981
11
361446.747731
21
311910.938858
31
-108.430117
12
361381.558892
22
311904.382809
32
78.336104
13
361381.558892
23
311904.382809
33
78.336104
0
POLYLINE
8
Edges
66
1
70
0
62
0
999
RGB=255
0
VERTEX
8
Edges
10
361618.505602
20
311814.582390
30
87.046574
0
VERTEX
8
Edges
10
361585.362852
20
311777.079792
30
87.342080
0
SEQEND
0
POLYLINE
8
Edges
66
1
70
0
62
0
999
RGB=255
0
VERTEX
8
Edges
10
361506.847460
20
311922.409404
30
-107.641542
0
VERTEX
8
Edges
10
361446.747731
20
311910.938858
30
-108.430117
0
SEQEND
0
POLYLINE
8
Edges
66
1
70
0
62
0
999
RGB=255
0
VERTEX
8
Edges
10
361509.292529
20
311920.048229
30
79.123221
0
VERTEX
8
Edges
10
361449.097140
20
311908.670060
30
79.728717
0
SEQEND
0
POLYLINE
8
Edges
66
1
70
0
62
0
999
RGB=255
0
VERTEX
8
Edges
10
361509.292529
20
311920.048229
30
79.123221
0
VERTEX
8
Edges
10
361525.061359
20
311835.312267
30
86.254457
0
SEQEND
0
POLYLINE
8
Edges
66
1
70
0
62
0
999
RGB=255
0
VERTEX
8
Edges
10
361618.505602
20
311814.582390
30
87.046574
0
VERTEX
8
Edges
10
361525.061359
20
311835.312267
30
86.254457
0
SEQEND
0
POLYLINE
8
Edges
66
1
70
0
62
0
999
RGB=255
0
VERTEX
8
Edges
10
361614.430487
20
311818.517683
30
-103.113912
0
VERTEX
8
Edges
10
361578.314625
20
311783.886185
30
-110.605364
0
SEQEND
0
POLYLINE
8
Edges
66
1
70
0
62
0
999
RGB=255
0
VERTEX
8
Edges
10
361506.847460
20
311922.409404
30
-107.641542
0
VERTEX
8
Edges
10
361578.314625
20
311783.886185
30
-110.605364
0
SEQEND
0
POLYLINE
8
Edges
66
1
70
0
62
0
999
RGB=255
0
VERTEX
8
Edges
10
361509.292529
20
311920.048229
30
79.123221
0
VERTEX
8
Edges
10
361446.747731
20
311910.938858
30
-108.430117
0
SEQEND
0
POLYLINE
8
Edges
66
1
70
0
62
0
999
RGB=255
0
VERTEX
8
Edges
10
361614.430487
20
311818.517683
30
-103.113912
0
VERTEX
8
Edges
10
361585.362852
20
311777.079792
30
87.342080
0
SEQEND
0
3DFACE
8
Surface
62
0
999
RGB=16756059
10
361618.505602
20
311814.582390
30
87.046574
11
361525.061359
21
311835.312267
31
86.254457
12
361509.292529
22
311920.048229
32
79.123221
13
361509.292529
23
311920.048229
33
79.123221
0
3DFACE
8
Surface
62
0
999
RGB=16756059
10
361614.430487
20
311818.517683
30
-103.113912
11
361585.362852
21
311777.079792
31
87.342080
12
361618.505602
22
311814.582390
32
87.046574
13
361618.505602
23
311814.582390
33
87.046574
0
3DFACE
8
Surface
62
0
999
RGB=16756059
10
361506.847460
20
311922.409404
30
-107.641542
11
361578.314625
21
311783.886185
31
-110.605364
12
361614.430487
22
311818.517683
32
-103.113912
13
361614.430487
23
311818.517683
33
-103.113912
0
3DFACE
8
Surface
62
0
999
RGB=16756059
10
361509.292529
20
311920.048229
30
79.123221
11
361446.747731
21
311910.938858
31
-108.430117
12
361506.847460
22
311922.409404
32
-107.641542
13
361506.847460
23
311922.409404
33
-107.641542
0
3DFACE
8
Surface
62
0
999
RGB=16756059
10
361449.097140
20
311908.670060
30
79.728717
11
361509.292529
21
311920.048229
31
79.123221
12
361525.061359
22
311835.312267
32
86.254457
13
361525.061359
23
311835.312267
33
86.254457
0
3DFACE
8
Surface
62
0
999
RGB=16756059
10
361525.061359
20
311835.312267
30
86.254457
11
361618.505602
21
311814.582390
31
87.046574
12
361585.362852
22
311777.079792
32
87.342080
13
361585.362852
23
311777.079792
33
87.342080
0
3DFACE
8
Surface
62
0
999
RGB=16756059
10
361585.362852
20
311777.079792
30
87.342080
11
361614.430487
21
311818.517683
31
-103.113912
12
361578.314625
22
311783.886185
32
-110.605364
13
361578.314625
23
311783.886185
33
-110.605364
0
3DFACE
8
Surface
62
0
999
RGB=16756059
10
361578.314625
20
311783.886185
30
-110.605364
11
361506.847460
21
311922.409404
31
-107.641542
12
361446.747731
22
311910.938858
32
-108.430117
13
361446.747731
23
311910.938858
33
-108.430117
0
3DFACE
8
Surface
62
0
999
RGB=16756059
10
361446.747731
20
311910.938858
30
-108.430117
11
361509.292529
21
311920.048229
31
79.123221
12
361449.097140
22
311908.670060
32
79.728717
13
361449.097140
23
311908.670060
33
79.728717
0
POLYLINE
8
Edges
66
1
70
0
62
0
999
RGB=255
0
VERTEX
8
Edges
10
361648.133166
20
311855.479563
30
-98.998698
0
VERTEX
8
Edges
10
361614.430487
20
311818.517683
30
-103.113912
0
SEQEND
0
POLYLINE
8
Edges
66
1
70
0
62
0
999
RGB=255
0
VERTEX
8
Edges
10
361576.992761
20
311924.179054
30
80.958677
0
VERTEX
8
Edges
10
361509.292529
20
311920.048229
30
79.123221
0
SEQEND
0
POLYLINE
8
Edges
66
1
70
0
62
0
999
RGB=255
0
VERTEX
8
Edges
10
361574.452032
20
311926.632607
30
-101.351082
0
VERTEX
8
Edges
10
361506.847460
20
311922.409404
30
-107.641542
0
SEQEND
0
POLYLINE
8
Edges
66
1
70
0
62
0
999
RGB=255
0
VERTEX
8
Edges
10
361656.602262
20
311847.301052
30
88.015829
0
VERTEX
8
Edges
10
361618.505602
20
311814.582390
30
87.046574
0
SEQEND
0
POLYLINE
8
Edges
66
1
70
0
62
0
999
RGB=255
0
VERTEX
8
Edges
10
361574.452032
20
311926.632607
30
-101.351082
0
VERTEX
8
Edges
10
361614.430487
20
311818.517683
30
-103.113912
0
SEQEND
0
POLYLINE
8
Edges
66
1
70
0
62
0
999
RGB=255
0
VERTEX
8
Edges
10
361576.992761
20
311924.179054
30
80.958677
0
VERTEX
8
Edges
10
361618.505602
20
311814.582390
30
87.046574
0
SEQEND
0
POLYLINE
8
Edges
66
1
70
0
62
0
999
RGB=255
0
VERTEX
8
Edges
10
361574.452032
20
311926.632607
30
-101.351082
0
VERTEX
8
Edges
10
361509.292529
20
311920.048229
30
79.123221
0
SEQEND
0
POLYLINE
8
Edges
66
1
70
0
62
0
999
RGB=255
0
VERTEX
8
Edges
10
361656.602262
20
311847.301052
30
88.015829
0
VERTEX
8
Edges
10
361614.430487
20
311818.517683
30
-103.113912
0
SEQEND
0
3DFACE
8
Surface
62
0
999
RGB=16756059
10
361656.602262
20
311847.301052
30
88.015829
11
361618.505602
21
311814.582390
31
87.046574
12
361576.992761
22
311924.179054
32
80.958677
13
361576.992761
23
311924.179054
33
80.958677
0
3DFACE
8
Surface
62
0
999
RGB=16756059
10
361648.133166
20
311855.479563
30
-98.998698
11
361614.430487
21
311818.517683
31
-103.113912
12
361656.602262
22
311847.301052
32
88.015829
13
361656.602262
23
311847.301052
33
88.015829
0
3DFACE
8
Surface
62
0
999
RGB=16756059
10
361574.452032
20
311926.632607
30
-101.351082
11
361614.430487
21
311818.517683
31
-103.113912
12
361648.133166
22
311855.479563
32
-98.998698
13
361648.133166
23
311855.479563
33
-98.998698
0
3DFACE
8
Surface
62
0
999
RGB=16756059
10
361576.992761
20
311924.179054
30
80.958677
11
361509.292529
21
311920.048229
31
79.123221
12
361574.452032
22
311926.632607
32
-101.351082
13
361574.452032
23
311926.632607
33
-101.351082
0
3DFACE
8
Surface
62
0
999
RGB=16756059
10
361509.292529
20
311920.048229
30
79.123221
11
361576.992761
21
311924.179054
31
80.958677
12
361618.505602
22
311814.582390
32
87.046574
13
361618.505602
23
311814.582390
33
87.046574
0
3DFACE
8
Surface
62
0
999
RGB=16756059
10
361618.505602
20
311814.582390
30
87.046574
11
361656.602262
21
311847.301052
31
88.015829
12
361614.430487
22
311818.517683
32
-103.113912
13
361614.430487
23
311818.517683
33
-103.113912
0
3DFACE
8
Surface
62
0
999
RGB=16756059
10
361614.430487
20
311818.517683
30
-103.113912
11
361574.452032
21
311926.632607
31
-101.351082
12
361506.847460
22
311922.409404
32
-107.641542
13
361506.847460
23
311922.409404
33
-107.641542
0
3DFACE
8
Surface
62
0
999
RGB=16756059
10
361506.847460
20
311922.409404
30
-107.641542
11
361574.452032
21
311926.632607
31
-101.351082
12
361509.292529
22
311920.048229
32
79.123221
13
361509.292529
23
311920.048229
33
79.123221
0
POLYLINE
8
Edges
66
1
70
0
62
0
999
RGB=255
0
VERTEX
8
Edges
10
361689.681239
20
311884.865236
30
86.721269
0
VERTEX
8
Edges
10
361656.602262
20
311847.301052
30
88.015829
0
SEQEND
0
POLYLINE
8
Edges
66
1
70
0
62
0
999
RGB=255
0
VERTEX
8
Edges
10
361636.074668
20
311936.632500
30
-97.570657
0
VERTEX
8
Edges
10
361574.452032
20
311926.632607
30
-101.351082
0
SEQEND
0
POLYLINE
8
Edges
66
1
70
0
62
0
999
RGB=255
0
VERTEX
8
Edges
10
361683.529665
20
311890.805741
30
-97.570657
0
VERTEX
8
Edges
10
361648.133166
20
311855.479563
30
-98.998698
0
SEQEND
0
POLYLINE
8
Edges
66
1
70
0
62
0
999
RGB=255
0
VERTEX
8
Edges
10
361636.074668
20
311936.632500
30
-97.570657
0
VERTEX
8
Edges
10
361648.133166
20
311855.479563
30
-98.998698
0
SEQEND
0
POLYLINE
8
Edges
66
1
70
0
62
0
999
RGB=255
0
VERTEX
8
Edges
10
361639.589853
20
311933.237925
30
86.721269
0
VERTEX
8
Edges
10
361576.992761
20
311924.179054
30
80.958677
0
SEQEND
0
POLYLINE
8
Edges
66
1
70
0
62
0
999
RGB=255
0
VERTEX
8
Edges
10
361636.074668
20
311936.632500
30
-97.570657
0
VERTEX
8
Edges
10
361576.992761
20
311924.179054
30
80.958677
0
SEQEND
0
POLYLINE
8
Edges
66
1
70
0
62
0
999
RGB=255
0
VERTEX
8
Edges
10
361639.589853
20
311933.237925
30
86.721269
0
VERTEX
8
Edges
10
361656.602262
20
311847.301052
30
88.015829
0
SEQEND
0
POLYLINE
8
Edges
66
1
70
0
62
0
999
RGB=255
0
VERTEX
8
Edges
10
361683.529665
20
311890.805741
30
-97.570657
0
VERTEX
8
Edges
10
361656.602262
20
311847.301052
30
88.015829
0
SEQEND
0
3DFACE
8
Surface
62
0
999
RGB=16756059
10
361689.681239
20
311884.865236
30
86.721269
11
361656.602262
21
311847.301052
31
88.015829
12
361639.589853
22
311933.237925
32
86.721269
13
361639.589853
23
311933.237925
33
86.721269
0
3DFACE
8
Surface
62
0
999
RGB=16756059
10
361683.529665
20
311890.805741
30
-97.570657
11
361656.602262
21
311847.301052
31
88.015829
12
361689.681239
22
311884.865236
32
86.721269
13
361689.681239
23
311884.865236
33
86.721269
0
3DFACE
8
Surface
62
0
999
RGB=16756059
10
361636.074668
20
311936.632500
30
-97.570657
11
361648.133166
21
311855.479563
31
-98.998698
12
361683.529665
22
311890.805741
32
-97.570657
13
361683.529665
23
311890.805741
33
-97.570657
0
3DFACE
8
Surface
62
0
999
RGB=16756059
10
361639.589853
20
311933.237925
30
86.721269
11
361576.992761
21
311924.179054
31
80.958677
12
361636.074668
22
311936.632500
32
-97.570657
13
361636.074668
23
311936.632500
33
-97.570657
0
3DFACE
8
Surface
62
0
999
RGB=16756059
10
361576.992761
20
311924.179054
30
80.958677
11
361639.589853
21
311933.237925
31
86.721269
12
361656.602262
22
311847.301052
32
88.015829
13
361656.602262
23
311847.301052
33
88.015829
0
3DFACE
8
Surface
62
0
999
RGB=16756059
10
361656.602262
20
311847.301052
30
88.015829
11
361683.529665
21
311890.805741
31
-97.570657
12
361648.133166
22
311855.479563
32
-98.998698
13
361648.133166
23
311855.479563
33
-98.998698
0
3DFACE
8
Surface
62
0
999
RGB=16756059
10
361648.133166
20
311855.479563
30
-98.998698
11
361636.074668
21
311936.632500
31
-97.570657
12
361574.452032
22
311926.632607
32
-101.351082
13
361574.452032
23
311926.632607
33
-101.351082
0
3DFACE
8
Surface
62
0
999
RGB=16756059
10
361574.452032
20
311926.632607
30
-101.351082
11
361636.074668
21
311936.632500
31
-97.570657
12
361576.992761
22
311924.179054
32
80.958677
13
361576.992761
23
311924.179054
33
80.958677
0
POLYLINE
8
Edges
66
1
70
0
62
0
999
RGB=255
0
VERTEX
8
Edges
10
361718.079254
20
311926.949771
30
-91.639785
0
VERTEX
8
Edges
10
361683.529665
20
311890.805741
30
-97.570657
0
SEQEND
0
POLYLINE
8
Edges
66
1
70
0
62
0
999
RGB=255
0
VERTEX
8
Edges
10
361680.741255
20
311963.006657
30
84.161948
0
VERTEX
8
Edges
10
361639.589853
20
311933.237925
30
86.721269
0
SEQEND
0
POLYLINE
8
Edges
66
1
70
0
62
0
999
RGB=255
0
VERTEX
8
Edges
10
361678.919889
20
311964.765530
30
-95.434067
0
VERTEX
8
Edges
10
361636.074668
20
311936.632500
30
-97.570657
0
SEQEND
0
POLYLINE
8
Edges
66
1
70
0
62
0
999
RGB=255
0
VERTEX
8
Edges
10
361678.919889
20
311964.765530
30
-92.904545
0
VERTEX
8
Edges
10
361636.074668
20
311936.632500
30
-97.570657
0
SEQEND
0
POLYLINE
8
Edges
66
1
70
0
62
0
999
RGB=255
0
VERTEX
8
Edges
10
361724.454034
20
311920.793717
30
86.691469
0
VERTEX
8
Edges
10
361689.681239
20
311884.865236
30
86.721269
0
SEQEND
0
POLYLINE
8
Edges
66
1
70
0
62
0
999
RGB=255
0
VERTEX
8
Edges
10
361678.919889
20
311964.765530
30
-95.434067
0
VERTEX
8
Edges
10
361683.529665
20
311890.805741
30
-97.570657
0
SEQEND
0
POLYLINE
8
Edges
66
1
70
0
62
0
999
RGB=255
0
VERTEX
8
Edges
10
361678.919889
20
311964.765530
30
-92.904545
0
VERTEX
8
Edges
10
361639.589853
20
311933.237925
30
86.721269
0
SEQEND
0
POLYLINE
8
Edges
66
1
70
0
62
0
999
RGB=255
0
VERTEX
8
Edges
10
361680.741255
20
311963.006657
30
84.161948
0
VERTEX
8
Edges
10
361689.681239
20
311884.865236
30
86.721269
0
SEQEND
0
POLYLINE
8
Edges
66
1
70
0
62
0
999
RGB=255
0
VERTEX
8
Edges
10
361724.454034
20
311920.793717
30
86.691469
0
VERTEX
8
Edges
10
361683.529665
20
311890.805741
30
-97.570657
0
SEQEND
0
3DFACE
8
Surface
62
0
999
RGB=16756059
10
361724.454034
20
311920.793717
30
86.691469
11
361689.681239
21
311884.865236
31
86.721269
12
361680.741255
22
311963.006657
32
84.161948
13
361680.741255
23
311963.006657
33
84.161948
0
3DFACE
8
Surface
62
0
999
RGB=16756059
10
361718.079254
20
311926.949771
30
-91.639785
11
361683.529665
21
311890.805741
31
-97.570657
12
361724.454034
22
311920.793717
32
86.691469
13
361724.454034
23
311920.793717
33
86.691469
0
3DFACE
8
Surface
62
0
999
RGB=16756059
10
361678.919889
20
311964.765530
30
-95.434067
11
361683.529665
21
311890.805741
31
-97.570657
12
361718.079254
22
311926.949771
32
-91.639785
13
361718.079254
23
311926.949771
33
-91.639785
0
3DFACE
8
Surface
62
0
999
RGB=16756059
10
361678.919889
20
311964.765530
30
-92.904545
11
361636.074668
21
311936.632500
31
-97.570657
12
361678.919889
22
311964.765530
32
-95.434067
13
361678.919889
23
311964.765530
33
-95.434067
0
3DFACE
8
Surface
62
0
999
RGB=16756059
10
361680.741255
20
311963.006657
30
84.161948
11
361639.589853
21
311933.237925
31
86.721269
12
361678.919889
22
311964.765530
32
-92.904545
13
361678.919889
23
311964.765530
33
-92.904545
0
3DFACE
8
Surface
62
0
999
RGB=16756059
10
361639.589853
20
311933.237925
30
86.721269
11
361680.741255
21
311963.006657
31
84.161948
12
361689.681239
22
311884.865236
32
86.721269
13
361689.681239
23
311884.865236
33
86.721269
0
3DFACE
8
Surface
62
0
999
RGB=16756059
10
361689.681239
20
311884.865236
30
86.721269
11
361724.454034
21
311920.793717
31
86.691469
12
361683.529665
22
311890.805741
32
-97.570657
13
361683.529665
23
311890.805741
33
-97.570657
0
3DFACE
8
Surface
62
0
999
RGB=16756059
10
361683.529665
20
311890.805741
30
-97.570657
11
361678.919889
21
311964.765530
31
-95.434067
12
361636.074668
22
311936.632500
32
-97.570657
13
361636.074668
23
311936.632500
33
-97.570657
0
3DFACE
8
Surface
62
0
999
RGB=16756059
10
361636.074668
20
311936.632500
30
-97.570657
11
361678.919889
21
311964.765530
31
-92.904545
12
361639.589853
22
311933.237925
32
86.721269
13
361639.589853
23
311933.237925
33
86.721269
0
POLYLINE
8
Edges
66
1
70
0
62
0
999
RGB=255
0
VERTEX
8
Edges
10
361716.811200
20
311997.682496
30
84.132148
0
VERTEX
8
Edges
10
361680.741255
20
311963.006657
30
84.161948
0
SEQEND
0
POLYLINE
8
Edges
66
1
70
0
62
0
999
RGB=255
0
VERTEX
8
Edges
10
361752.628843
20
311963.093800
30
-89.970837
0
VERTEX
8
Edges
10
361718.079254
20
311926.949771
30
-91.639785
0
SEQEND
0
POLYLINE
8
Edges
66
1
70
0
62
0
999
RGB=255
0
VERTEX
8
Edges
10
361715.868630
20
311998.592725
30
-89.970837
0
VERTEX
8
Edges
10
361678.919889
20
311964.765530
30
-92.904545
0
SEQEND
0
POLYLINE
8
Edges
66
1
70
0
62
0
999
RGB=255
0
VERTEX
8
Edges
10
361715.868630
20
311998.592725
30
-89.970837
0
VERTEX
8
Edges
10
361678.919889
20
311964.765530
30
-95.434067
0
SEQEND
0
POLYLINE
8
Edges
66
1
70
0
62
0
999
RGB=255
0
VERTEX
8
Edges
10
361759.226830
20
311956.722198
30
91.986418
0
VERTEX
8
Edges
10
361724.454034
20
311920.793717
30
86.691469
0
SEQEND
0
POLYLINE
8
Edges
66
1
70
0
62
0
999
RGB=255
0
VERTEX
8
Edges
10
361752.628843
20
311963.093800
30
-89.970837
0
VERTEX
8
Edges
10
361678.919889
20
311964.765530
30
-95.434067
0
SEQEND
0
POLYLINE
8
Edges
66
1
70
0
62
0
999
RGB=255
0
VERTEX
8
Edges
10
361716.811200
20
311997.682496
30
84.132148
0
VERTEX
8
Edges
10
361678.919889
20
311964.765530
30
-92.904545
0
SEQEND
0
POLYLINE
8
Edges
66
1
70
0
62
0
999
RGB=255
0
VERTEX
8
Edges
10
361759.226830
20
311956.722198
30
91.986418
0
VERTEX
8
Edges
10
361680.741255
20
311963.006657
30
84.161948
0
SEQEND
0
POLYLINE
8
Edges
66
1
70
0
62
0
999
RGB=255
0
VERTEX
8
Edges
10
361752.628843
20
311963.093800
30
-89.970837
0
VERTEX
8
Edges
10
361724.454034
20
311920.793717
30
86.691469
0
SEQEND
0
3DFACE
8
Surface
62
0
999
RGB=16756059
10
361759.226830
20
311956.722198
30
91.986418
11
361680.741255
21
311963.006657
31
84.161948
12
361716.811200
22
311997.682496
32
84.132148
13
361716.811200
23
311997.682496
33
84.132148
0
3DFACE
8
Surface
62
0
999
RGB=16756059
10
361752.628843
20
311963.093800
30
-89.970837
11
361724.454034
21
311920.793717
31
86.691469
12
361759.226830
22
311956.722198
32
91.986418
13
361759.226830
23
311956.722198
33
91.986418
0
3DFACE
8
Surface
62
0
999
RGB=16756059
10
361715.868630
20
311998.592725
30
-89.970837
11
361678.919889
21
311964.765530
31
-95.434067
12
361752.628843
22
311963.093800
32
-89.970837
13
361752.628843
23
311963.093800
33
-89.970837
0
3DFACE
8
Surface
62
0
999
RGB=16756059
10
361716.811200
20
311997.682496
30
84.132148
11
361678.919889
21
311964.765530
31
-92.904545
12
361715.868630
22
311998.592725
32
-89.970837
13
361715.868630
23
311998.592725
33
-89.970837
0
3DFACE
8
Surface
62
0
999
RGB=16756059
10
361680.741255
20
311963.006657
30
84.161948
11
361759.226830
21
311956.722198
31
91.986418
12
361724.454034
22
311920.793717
32
86.691469
13
361724.454034
23
311920.793717
33
86.691469
0
3DFACE
8
Surface
62
0
999
RGB=16756059
10
361724.454034
20
311920.793717
30
86.691469
11
361752.628843
21
311963.093800
31
-89.970837
12
361718.079254
22
311926.949771
32
-91.639785
13
361718.079254
23
311926.949771
33
-91.639785
0
3DFACE
8
Surface
62
0
999
RGB=16756059
10
361718.079254
20
311926.949771
30
-91.639785
11
361752.628843
21
311963.093800
31
-89.970837
12
361678.919889
22
311964.765530
32
-95.434067
13
361678.919889
23
311964.765530
33
-95.434067
0
3DFACE
8
Surface
62
0
999
RGB=16756059
10
361678.919889
20
311964.765530
30
-95.434067
11
361715.868630
21
311998.592725
31
-89.970837
12
361678.919889
22
311964.765530
32
-92.904545
13
361678.919889
23
311964.765530
33
-92.904545
0
3DFACE
8
Surface
62
0
999
RGB=16756059
10
361678.919889
20
311964.765530
30
-92.904545
11
361716.811200
21
311997.682496
31
84.132148
12
361680.741255
22
311963.006657
32
84.161948
13
361680.741255
23
311963.006657
33
84.161948
0
POLYLINE
8
Edges
66
1
70
0
62
0
999
RGB=255
0
VERTEX
8
Edges
10
361754.046921
20
312031.232558
30
-86.328580
0
VERTEX
8
Edges
10
361715.868630
20
311998.592725
30
-89.970837
0
SEQEND
0
POLYLINE
8
Edges
66
1
70
0
62
0
999
RGB=255
0
VERTEX
8
Edges
10
361754.046921
20
312031.232558
30
-86.328580
0
VERTEX
8
Edges
10
361752.628843
20
311963.093800
30
-89.970837
0
SEQEND
0
POLYLINE
8
Edges
66
1
70
0
62
0
999
RGB=255
0
VERTEX
8
Edges
10
361788.152888
20
311998.296808
30
-84.975250
0
VERTEX
8
Edges
10
361752.628843
20
311963.093800
30
-89.970837
0
SEQEND
0
POLYLINE
8
Edges
66
1
70
0
62
0
999
RGB=255
0
VERTEX
8
Edges
10
361794.974082
20
311991.709658
30
90.957564
0
VERTEX
8
Edges
10
361759.226830
20
311956.722198
30
91.986418
0
SEQEND
0
POLYLINE
8
Edges
66
1
70
0
62
0
999
RGB=255
0
VERTEX
8
Edges
10
361756.970289
20
312028.409494
30
88.250905
0
VERTEX
8
Edges
10
361716.811200
20
311997.682496
30
84.132148
0
SEQEND
0
POLYLINE
8
Edges
66
1
70
0
62
0
999
RGB=255
0
VERTEX
8
Edges
10
361756.970289
20
312028.409494
30
88.250905
0
VERTEX
8
Edges
10
361759.226830
20
311956.722198
30
91.986418
0
SEQEND
0
POLYLINE
8
Edges
66
1
70
0
62
0
999
RGB=255
0
VERTEX
8
Edges
10
361754.046921
20
312031.232558
30
-86.328580
0
VERTEX
8
Edges
10
361716.811200
20
311997.682496
30
84.132148
0
SEQEND
0
3DFACE
8
Surface
62
0
999
RGB=16756059
10
361794.974082
20
311991.709658
30
90.957564
11
361759.226830
21
311956.722198
31
91.986418
12
361756.970289
22
312028.409494
32
88.250905
13
361756.970289
23
312028.409494
33
88.250905
0
3DFACE
8
Surface
62
0
999
RGB=16756059
10
361754.046921
20
312031.232558
30
-86.328580
11
361752.628843
21
311963.093800
31
-89.970837
12
361788.152888
22
311998.296808
32
-84.975250
13
361788.152888
23
311998.296808
33
-84.975250
0
3DFACE
8
Surface
62
0
999
RGB=16756059
10
361756.970289
20
312028.409494
30
88.250905
11
361716.811200
21
311997.682496
31
84.132148
12
361754.046921
22
312031.232558
32
-86.328580
13
361754.046921
23
312031.232558
33
-86.328580
0
3DFACE
8
Surface
62
0
999
RGB=16756059
10
361716.811200
20
311997.682496
30
84.132148
11
361756.970289
21
312028.409494
31
88.250905
12
361759.226830
22
311956.722198
32
91.986418
13
361759.226830
23
311956.722198
33
91.986418
0
3DFACE
8
Surface
62
0
999
RGB=16756059
10
361752.628843
20
311963.093800
30
-89.970837
11
361754.046921
21
312031.232558
31
-86.328580
12
361715.868630
22
311998.592725
32
-89.970837
13
361715.868630
23
311998.592725
33
-89.970837
0
3DFACE
8
Surface
62
0
999
RGB=16756059
10
361715.868630
20
311998.592725
30
-89.970837
11
361754.046921
21
312031.232558
31
-86.328580
12
361716.811200
22
311997.682496
32
84.132148
13
361716.811200
23
311997.682496
33
84.132148
0
3DFACE
8
Surface
62
0
999
RGB=16756059
10
361788.152888
20
311998.296808
30
-84.975250
11
361759.226830
21
311956.722198
31
91.986418
12
361794.974082
22
311991.709658
32
90.957564
13
361794.974082
23
311991.709658
33
90.957564
0
3DFACE
8
Surface
62
0
999
RGB=16756059
10
361788.152888
20
311998.296808
30
-84.975250
11
361752.628843
21
311963.093800
31
-89.970837
12
361759.226830
22
311956.722198
32
91.986418
13
361759.226830
23
311956.722198
33
91.986418
0
POLYLINE
8
Edges
66
1
70
0
62
0
999
RGB=255
0
VERTEX
8
Edges
10
361798.582135
20
312057.733581
30
87.133482
0
VERTEX
8
Edges
10
361756.970289
20
312028.409494
30
88.250905
0
SEQEND
0
POLYLINE
8
Edges
66
1
70
0
62
0
999
RGB=255
0
VERTEX
8
Edges
10
361823.740707
20
312033.438231
30
-76.387318
0
VERTEX
8
Edges
10
361788.152888
20
311998.296808
30
-84.975250
0
SEQEND
0
POLYLINE
8
Edges
66
1
70
0
62
0
999
RGB=255
0
VERTEX
8
Edges
10
361793.550421
20
312062.592652
30
-76.387318
0
VERTEX
8
Edges
10
361754.046921
20
312031.232558
30
-86.328580
0
SEQEND
0
POLYLINE
8
Edges
66
1
70
0
62
0
999
RGB=255
0
VERTEX
8
Edges
10
361823.740707
20
312033.438231
30
-76.387318
0
VERTEX
8
Edges
10
361754.046921
20
312031.232558
30
-86.328580
0
SEQEND
0
POLYLINE
8
Edges
66
1
70
0
62
0
999
RGB=255
0
VERTEX
8
Edges
10
361831.791450
20
312025.663719
30
91.326323
0
VERTEX
8
Edges
10
361794.974082
20
311991.709658
30
90.957564
0
SEQEND
0
POLYLINE
8
Edges
66
1
70
0
62
0
999
RGB=255
0
VERTEX
8
Edges
10
361798.582135
20
312057.733581
30
87.133482
0
VERTEX
8
Edges
10
361794.974082
20
311991.709658
30
90.957564
0
SEQEND
0
POLYLINE
8
Edges
66
1
70
0
62
0
999
RGB=255
0
VERTEX
8
Edges
10
361793.550421
20
312062.592652
30
-76.387318
0
VERTEX
8
Edges
10
361756.970289
20
312028.409494
30
88.250905
0
SEQEND
0
POLYLINE
8
Edges
66
1
70
0
62
0
999
RGB=255
0
VERTEX
8
Edges
10
361831.791450
20
312025.663719
30
91.326323
0
VERTEX
8
Edges
10
361788.152888
20
311998.296808
30
-84.975250
0
SEQEND
0
3DFACE
8
Surface
62
0
999
RGB=16756059
10
361831.791450
20
312025.663719
30
91.326323
11
361794.974082
21
311991.709658
31
90.957564
12
361798.582135
22
312057.733581
32
87.133482
13
361798.582135
23
312057.733581
33
87.133482
0
3DFACE
8
Surface
62
0
999
RGB=16756059
10
361823.740707
20
312033.438231
30
-76.387318
11
361788.152888
21
311998.296808
31
-84.975250
12
361831.791450
22
312025.663719
32
91.326323
13
361831.791450
23
312025.663719
33
91.326323
0
3DFACE
8
Surface
62
0
999
RGB=16756059
10
361793.550421
20
312062.592652
30
-76.387318
11
361754.046921
21
312031.232558
31
-86.328580
12
361823.740707
22
312033.438231
32
-76.387318
13
361823.740707
23
312033.438231
33
-76.387318
0
3DFACE
8
Surface
62
0
999
RGB=16756059
10
361798.582135
20
312057.733581
30
87.133482
11
361756.970289
21
312028.409494
31
88.250905
12
361793.550421
22
312062.592652
32
-76.387318
13
361793.550421
23
312062.592652
33
-76.387318
0
3DFACE
8
Surface
62
0
999
RGB=16756059
10
361756.970289
20
312028.409494
30
88.250905
11
361798.582135
21
312057.733581
31
87.133482
12
361794.974082
22
311991.709658
32
90.957564
13
361794.974082
23
311991.709658
33
90.957564
0
3DFACE
8
Surface
62
0
999
RGB=16756059
10
361794.974082
20
311991.709658
30
90.957564
11
361831.791450
21
312025.663719
31
91.326323
12
361788.152888
22
311998.296808
32
-84.975250
13
361788.152888
23
311998.296808
33
-84.975250
0
3DFACE
8
Surface
62
0
999
RGB=16756059
10
361788.152888
20
311998.296808
30
-84.975250
11
361823.740707
21
312033.438231
31
-76.387318
12
361754.046921
22
312031.232558
32
-86.328580
13
361754.046921
23
312031.232558
33
-86.328580
0
3DFACE
8
Surface
62
0
999
RGB=16756059
10
361754.046921
20
312031.232558
30
-86.328580
11
361793.550421
21
312062.592652
31
-76.387318
12
361756.970289
22
312028.409494
32
88.250905
13
361756.970289
23
312028.409494
33
88.250905
0
POLYLINE
8
Edges
66
1
70
0
62
0
999
RGB=255
0
VERTEX
8
Edges
10
360781.812587
20
310954.371128
30
-60.295238
0
VERTEX
8
Edges
10
360746.953798
20
310918.525696
30
-52.948439
0
SEQEND
0
POLYLINE
8
Edges
66
1
70
0
62
0
999
RGB=255
0
VERTEX
8
Edges
10
360776.339005
20
310959.656905
30
-218.845721
0
VERTEX
8
Edges
10
360741.984179
20
310923.324801
30
-206.671019
0
SEQEND
0
POLYLINE
8
Edges
66
1
70
0
62
0
999
RGB=255
0
VERTEX
8
Edges
10
360639.108499
20
311092.178864
30
-218.302740
0
VERTEX
8
Edges
10
360635.363262
20
311026.287424
30
-207.925898
0
SEQEND
0
POLYLINE
8
Edges
66
1
70
0
62
0
999
RGB=255
0
VERTEX
8
Edges
10
360713.783788
20
311020.065775
30
100.427169
0
VERTEX
8
Edges
10
360642.591798
20
311019.306908
30
95.127188
0
SEQEND
0
POLYLINE
8
Edges
66
1
70
0
62
0
999
RGB=255
0
VERTEX
8
Edges
10
360609.394771
20
311120.873078
30
94.454377
0
VERTEX
8
Edges
10
360533.260180
20
311124.887224
30
89.480236
0
SEQEND
0
POLYLINE
8
Edges
66
1
70
0
62
0
999
RGB=255
0
VERTEX
8
Edges
10
360501.877992
20
311224.700823
30
-217.759759
0
VERTEX
8
Edges
10
360528.742344
20
311129.250047
30
-209.180776
0
SEQEND
0
POLYLINE
8
Edges
66
1
70
0
62
0
999
RGB=255
0
VERTEX
8
Edges
10
360503.441872
20
311223.190601
30
-64.639087
0
VERTEX
8
Edges
10
360531.001262
20
311127.068636
30
-59.850270
0
SEQEND
0
POLYLINE
8
Edges
66
1
70
0
62
0
999
RGB=255
0
VERTEX
8
Edges
10
360505.005753
20
311221.680380
30
88.481585
0
VERTEX
8
Edges
10
360533.260180
20
311124.887224
30
89.480236
0
SEQEND
0
POLYLINE
8
Edges
66
1
70
0
62
0
999
RGB=255
0
VERTEX
8
Edges
10
360609.394771
20
311120.873078
30
94.454377
0
VERTEX
8
Edges
10
360642.591798
20
311019.306908
30
95.127188
0
SEQEND
0
POLYLINE
8
Edges
66
1
70
0
62
0
999
RGB=255
0
VERTEX
8
Edges
10
360639.108499
20
311092.178864
30
-218.302740
0
VERTEX
8
Edges
10
360528.742344
20
311129.250047
30
-209.180776
0
SEQEND
0
POLYLINE
8
Edges
66
1
70
0
62
0
999
RGB=255
0
VERTEX
8
Edges
10
360781.812587
20
310954.371128
30
-60.295238
0
VERTEX
8
Edges
10
360741.984179
20
310923.324801
30
-206.671019
0
SEQEND
0
POLYLINE
8
Edges
66
1
70
0
62
0
999
RGB=255
0
VERTEX
8
Edges
10
360776.339005
20
310959.656905
30
-218.845721
0
VERTEX
8
Edges
10
360635.363262
20
311026.287424
30
-207.925898
0
SEQEND
0
POLYLINE
8
Edges
66
1
70
0
62
0
999
RGB=255
0
VERTEX
8
Edges
10
360787.286168
20
310949.085352
30
98.255244
0
VERTEX
8
Edges
10
360746.953798
20
310918.525696
30
-52.948439
0
SEQEND
0
POLYLINE
8
Edges
66
1
70
0
62
0
999
RGB=255
0
VERTEX
8
Edges
10
360505.005753
20
311221.680380
30
88.481585
0
VERTEX
8
Edges
10
360531.001262
20
311127.068636
30
-59.850270
0
SEQEND
0
POLYLINE
8
Edges
66
1
70
0
62
0
999
RGB=255
0
VERTEX
8
Edges
10
360503.441872
20
311223.190601
30
-64.639087
0
VERTEX
8
Edges
10
360528.742344
20
311129.250047
30
-209.180776
0
SEQEND
0
POLYLINE
8
Edges
66
1
70
0
62
0
999
RGB=255
0
VERTEX
8
Edges
10
360787.286168
20
310949.085352
30
98.255244
0
VERTEX
8
Edges
10
360751.923417
20
310913.726591
30
100.774140
0
SEQEND
0
POLYLINE
8
Edges
66
1
70
0
62
0
999
RGB=255
0
VERTEX
8
Edges
10
360713.783788
20
311020.065775
30
100.427169
0
VERTEX
8
Edges
10
360751.923417
20
310913.726591
30
100.774140
0
SEQEND
0
3DFACE
8
Surface
62
0
999
RGB=16756059
10
360609.394771
20
311120.873078
30
94.454377
11
360533.260180
21
311124.887224
31
89.480236
12
360505.005753
22
311221.680380
32
88.481585
13
360505.005753
23
311221.680380
33
88.481585
0
3DFACE
8
Surface
62
0
999
RGB=16756059
10
360713.783788
20
311020.065775
30
100.427169
11
360642.591798
21
311019.306908
31
95.127188
12
360609.394771
22
311120.873078
32
94.454377
13
360609.394771
23
311120.873078
33
94.454377
0
3DFACE
8
Surface
62
0
999
RGB=16756059
10
360787.286168
20
310949.085352
30
98.255244
11
360751.923417
21
310913.726591
31
100.774140
12
360713.783788
22
311020.065775
32
100.427169
13
360713.783788
23
311020.065775
33
100.427169
0
3DFACE
8
Surface
62
0
999
RGB=16756059
10
360781.812587
20
310954.371128
30
-60.295238
11
360746.953798
21
310918.525696
31
-52.948439
12
360787.286168
22
310949.085352
32
98.255244
13
360787.286168
23
310949.085352
33
98.255244
0
3DFACE
8
Surface
62
0
999
RGB=16756059
10
360776.339005
20
310959.656905
30
-218.845721
11
360741.984179
21
310923.324801
31
-206.671019
12
360781.812587
22
310954.371128
32
-60.295238
13
360781.812587
23
310954.371128
33
-60.295238
0
3DFACE
8
Surface
62
0
999
RGB=16756059
10
360639.108499
20
311092.178864
30
-218.302740
11
360635.363262
21
311026.287424
31
-207.925898
12
360776.339005
22
310959.656905
32
-218.845721
13
360776.339005
23
310959.656905
33
-218.845721
0
3DFACE
8
Surface
62
0
999
RGB=16756059
10
360501.877992
20
311224.700823
30
-217.759759
11
360528.742344
21
311129.250047
31
-209.180776
12
360639.108499
22
311092.178864
32
-218.302740
13
360639.108499
23
311092.178864
33
-218.302740
0
3DFACE
8
Surface
62
0
999
RGB=16756059
10
360503.441872
20
311223.190601
30
-64.639087
11
360528.742344
21
311129.250047
31
-209.180776
12
360501.877992
22
311224.700823
32
-217.759759
13
360501.877992
23
311224.700823
33
-217.759759
0
3DFACE
8
Surface
62
0
999
RGB=16756059
10
360505.005753
20
311221.680380
30
88.481585
11
360531.001262
21
311127.068636
31
-59.850270
12
360503.441872
22
311223.190601
32
-64.639087
13
360503.441872
23
311223.190601
33
-64.639087
0
3DFACE
8
Surface
62
0
999
RGB=16756059
10
360751.923417
20
310913.726591
30
100.774140
11
360787.286168
21
310949.085352
31
98.255244
12
360746.953798
22
310918.525696
32
-52.948439
13
360746.953798
23
310918.525696
33
-52.948439
0
3DFACE
8
Surface
62
0
999
RGB=16756059
10
360746.953798
20
310918.525696
30
-52.948439
11
360781.812587
21
310954.371128
31
-60.295238
12
360741.984179
22
310923.324801
32
-206.671019
13
360741.984179
23
310923.324801
33
-206.671019
0
3DFACE
8
Surface
62
0
999
RGB=16756059
10
360741.984179
20
310923.324801
30
-206.671019
11
360776.339005
21
310959.656905
31
-218.845721
12
360635.363262
22
311026.287424
32
-207.925898
13
360635.363262
23
311026.287424
33
-207.925898
0
3DFACE
8
Surface
62
0
999
RGB=16756059
10
360635.363262
20
311026.287424
30
-207.925898
11
360639.108499
21
311092.178864
31
-218.302740
12
360528.742344
22
311129.250047
32
-209.180776
13
360528.742344
23
311129.250047
33
-209.180776
0
3DFACE
8
Surface
62
0
999
RGB=16756059
10
360528.742344
20
311129.250047
30
-209.180776
11
360503.441872
21
311223.190601
31
-64.639087
12
360531.001262
22
311127.068636
32
-59.850270
13
360531.001262
23
311127.068636
33
-59.850270
0
3DFACE
8
Surface
62
0
999
RGB=16756059
10
360531.001262
20
311127.068636
30
-59.850270
11
360505.005753
21
311221.680380
31
88.481585
12
360533.260180
22
311124.887224
32
89.480236
13
360533.260180
23
311124.887224
33
89.480236
0
3DFACE
8
Surface
62
0
999
RGB=16756059
10
360533.260180
20
311124.887224
30
89.480236
11
360609.394771
21
311120.873078
31
94.454377
12
360642.591798
22
311019.306908
32
95.127188
13
360642.591798
23
311019.306908
33
95.127188
0
3DFACE
8
Surface
62
0
999
RGB=16756059
10
360642.591798
20
311019.306908
30
95.127188
11
360713.783788
21
311020.065775
31
100.427169
12
360751.923417
22
310913.726591
32
100.774140
13
360751.923417
23
310913.726591
33
100.774140
0
POLYLINE
8
Edges
66
1
70
0
62
0
999
RGB=255
0
VERTEX
8
Edges
10
360746.953798
20
310918.525696
30
-52.948439
0
VERTEX
8
Edges
10
360712.356380
20
310882.427856
30
-46.155164
0
SEQEND
0
POLYLINE
8
Edges
66
1
70
0
62
0
999
RGB=255
0
VERTEX
8
Edges
10
360741.984179
20
310923.324801
30
-206.671019
0
VERTEX
8
Edges
10
360707.562137
20
310887.057602
30
-195.058209
0
SEQEND
0
POLYLINE
8
Edges
66
1
70
0
62
0
999
RGB=255
0
VERTEX
8
Edges
10
360531.001262
20
311127.068636
30
-59.850270
0
VERTEX
8
Edges
10
360527.995967
20
311060.462637
30
-51.602835
0
SEQEND
0
POLYLINE
8
Edges
66
1
70
0
62
0
999
RGB=255
0
VERTEX
8
Edges
10
360528.742344
20
311129.250047
30
-209.180776
0
VERTEX
8
Edges
10
360525.380925
20
311062.987953
30
-196.268802
0
SEQEND
0
POLYLINE
8
Edges
66
1
70
0
62
0
999
RGB=255
0
VERTEX
8
Edges
10
360642.591798
20
311019.306908
30
95.127188
0
VERTEX
8
Edges
10
360530.611008
20
311057.937321
30
93.063131
0
SEQEND
0
POLYLINE
8
Edges
66
1
70
0
62
0
999
RGB=255
0
VERTEX
8
Edges
10
360635.363262
20
311026.287424
30
-207.925898
0
VERTEX
8
Edges
10
360525.380925
20
311062.987953
30
-196.268802
0
SEQEND
0
POLYLINE
8
Edges
66
1
70
0
62
0
999
RGB=255
0
VERTEX
8
Edges
10
360746.953798
20
310918.525696
30
-52.948439
0
VERTEX
8
Edges
10
360707.562137
20
310887.057602
30
-195.058209
0
SEQEND
0
POLYLINE
8
Edges
66
1
70
0
62
0
999
RGB=255
0
VERTEX
8
Edges
10
360533.260180
20
311124.887224
30
89.480236
0
VERTEX
8
Edges
10
360527.995967
20
311060.462637
30
-51.602835
0
SEQEND
0
POLYLINE
8
Edges
66
1
70
0
62
0
999
RGB=255
0
VERTEX
8
Edges
10
360635.363262
20
311026.287424
30
-207.925898
0
VERTEX
8
Edges
10
360707.562137
20
310887.057602
30
-195.058209
0
SEQEND
0
POLYLINE
8
Edges
66
1
70
0
62
0
999
RGB=255
0
VERTEX
8
Edges
10
360531.001262
20
311127.068636
30
-59.850270
0
VERTEX
8
Edges
10
360525.380925
20
311062.987953
30
-196.268802
0
SEQEND
0
POLYLINE
8
Edges
66
1
70
0
62
0
999
RGB=255
0
VERTEX
8
Edges
10
360751.923417
20
310913.726591
30
100.774140
0
VERTEX
8
Edges
10
360712.356380
20
310882.427856
30
-46.155164
0
SEQEND
0
POLYLINE
8
Edges
66
1
70
0
62
0
999
RGB=255
0
VERTEX
8
Edges
10
360642.591798
20
311019.306908
30
95.127188
0
VERTEX
8
Edges
10
360717.150622
20
310877.798109
30
102.747882
0
SEQEND
0
POLYLINE
8
Edges
66
1
70
0
62
0
999
RGB=255
0
VERTEX
8
Edges
10
360751.923417
20
310913.726591
30
100.774140
0
VERTEX
8
Edges
10
360717.150622
20
310877.798109
30
102.747882
0
SEQEND
0
POLYLINE
8
Edges
66
1
70
0
62
0
999
RGB=255
0
VERTEX
8
Edges
10
360533.260180
20
311124.887224
30
89.480236
0
VERTEX
8
Edges
10
360530.611008
20
311057.937321
30
93.063131
0
SEQEND
0
3DFACE
8
Surface
62
0
999
RGB=16756059
10
360746.953798
20
310918.525696
30
-52.948439
11
360712.356380
21
310882.427856
31
-46.155164
12
360751.923417
22
310913.726591
32
100.774140
13
360751.923417
23
310913.726591
33
100.774140
0
3DFACE
8
Surface
62
0
999
RGB=16756059
10
360741.984179
20
310923.324801
30
-206.671019
11
360707.562137
21
310887.057602
31
-195.058209
12
360746.953798
22
310918.525696
32
-52.948439
13
360746.953798
23
310918.525696
33
-52.948439
0
3DFACE
8
Surface
62
0
999
RGB=16756059
10
360635.363262
20
311026.287424
30
-207.925898
11
360707.562137
21
310887.057602
31
-195.058209
12
360741.984179
22
310923.324801
32
-206.671019
13
360741.984179
23
310923.324801
33
-206.671019
0
3DFACE
8
Surface
62
0
999
RGB=16756059
10
360528.742344
20
311129.250047
30
-209.180776
11
360525.380925
21
311062.987953
31
-196.268802
12
360635.363262
22
311026.287424
32
-207.925898
13
360635.363262
23
311026.287424
33
-207.925898
0
3DFACE
8
Surface
62
0
999
RGB=16756059
10
360531.001262
20
311127.068636
30
-59.850270
11
360525.380925
21
311062.987953
31
-196.268802
12
360528.742344
22
311129.250047
32
-209.180776
13
360528.742344
23
311129.250047
33
-209.180776
0
3DFACE
8
Surface
62
0
999
RGB=16756059
10
360533.260180
20
311124.887224
30
89.480236
11
360527.995967
21
311060.462637
31
-51.602835
12
360531.001262
22
311127.068636
32
-59.850270
13
360531.001262
23
311127.068636
33
-59.850270
0
3DFACE
8
Surface
62
0
999
RGB=16756059
10
360642.591798
20
311019.306908
30
95.127188
11
360530.611008
21
311057.937321
31
93.063131
12
360533.260180
22
311124.887224
32
89.480236
13
360533.260180
23
311124.887224
33
89.480236
0
3DFACE
8
Surface
62
0
999
RGB=16756059
10
360751.923417
20
310913.726591
30
100.774140
11
360717.150622
21
310877.798109
31
102.747882
12
360642.591798
22
311019.306908
32
95.127188
13
360642.591798
23
311019.306908
33
95.127188
0
3DFACE
8
Surface
62
0
999
RGB=16756059
10
360717.150622
20
310877.798109
30
102.747882
11
360751.923417
21
310913.726591
31
100.774140
12
360712.356380
22
310882.427856
32
-46.155164
13
360712.356380
23
310882.427856
33
-46.155164
0
3DFACE
8
Surface
62
0
999
RGB=16756059
10
360712.356380
20
310882.427856
30
-46.155164
11
360746.953798
21
310918.525696
31
-52.948439
12
360707.562137
22
310887.057602
32
-195.058209
13
360707.562137
23
310887.057602
33
-195.058209
0
3DFACE
8
Surface
62
0
999
RGB=16756059
10
360707.562137
20
310887.057602
30
-195.058209
11
360635.363262
21
311026.287424
31
-207.925898
12
360525.380925
22
311062.987953
32
-196.268802
13
360525.380925
23
311062.987953
33
-196.268802
0
3DFACE
8
Surface
62
0
999
RGB=16756059
10
360525.380925
20
311062.987953
30
-196.268802
11
360531.001262
21
311127.068636
31
-59.850270
12
360527.995967
22
311060.462637
32
-51.602835
13
360527.995967
23
311060.462637
33
-51.602835
0
3DFACE
8
Surface
62
0
999
RGB=16756059
10
360527.995967
20
311060.462637
30
-51.602835
11
360533.260180
21
311124.887224
31
89.480236
12
360530.611008
22
311057.937321
32
93.063131
13
360530.611008
23
311057.937321
33
93.063131
0
3DFACE
8
Surface
62
0
999
RGB=16756059
10
360530.611008
20
311057.937321
30
93.063131
11
360642.591798
21
311019.306908
31
95.127188
12
360717.150622
22
310877.798109
32
102.747882
13
360717.150622
23
310877.798109
33
102.747882
0
POLYLINE
8
Edges
66
1
70
0
62
0
999
RGB=255
0
VERTEX
8
Edges
10
360712.356380
20
310882.427856
30
-46.155164
0
VERTEX
8
Edges
10
360677.758961
20
310846.330016
30
-39.989326
0
SEQEND
0
POLYLINE
8
Edges
66
1
70
0
62
0
999
RGB=255
0
VERTEX
8
Edges
10
360707.562137
20
310887.057602
30
-195.058209
0
VERTEX
8
Edges
10
360672.300301
20
310851.601382
30
-183.445398
0
SEQEND
0
POLYLINE
8
Edges
66
1
70
0
62
0
999
RGB=255
0
VERTEX
8
Edges
10
360525.380925
20
311062.987953
30
-196.268802
0
VERTEX
8
Edges
10
360527.855770
20
310991.089843
30
-184.611707
0
SEQEND
0
POLYLINE
8
Edges
66
1
70
0
62
0
999
RGB=255
0
VERTEX
8
Edges
10
360530.611008
20
311057.937321
30
93.063131
0
VERTEX
8
Edges
10
360536.253708
20
310982.980049
30
95.302580
0
SEQEND
0
POLYLINE
8
Edges
66
1
70
0
62
0
999
RGB=255
0
VERTEX
8
Edges
10
360712.356380
20
310882.427856
30
-46.155164
0
VERTEX
8
Edges
10
360672.300301
20
310851.601382
30
-183.445398
0
SEQEND
0
POLYLINE
8
Edges
66
1
70
0
62
0
999
RGB=255
0
VERTEX
8
Edges
10
360527.995967
20
311060.462637
30
-51.602835
0
VERTEX
8
Edges
10
360527.855770
20
310991.089843
30
-184.611707
0
SEQEND
0
POLYLINE
8
Edges
66
1
70
0
62
0
999
RGB=255
0
VERTEX
8
Edges
10
360527.995967
20
311060.462637
30
-51.602835
0
VERTEX
8
Edges
10
360536.253708
20
310982.980049
30
95.302580
0
SEQEND
0
POLYLINE
8
Edges
66
1
70
0
62
0
999
RGB=255
0
VERTEX
8
Edges
10
360717.150622
20
310877.798109
30
102.747882
0
VERTEX
8
Edges
10
360683.217620
20
310841.058649
30
103.466746
0
SEQEND
0
POLYLINE
8
Edges
66
1
70
0
62
0
999
RGB=255
0
VERTEX
8
Edges
10
360707.562137
20
310887.057602
30
-195.058209
0
VERTEX
8
Edges
10
360527.855770
20
310991.089843
30
-184.611707
0
SEQEND
0
POLYLINE
8
Edges
66
1
70
0
62
0
999
RGB=255
0
VERTEX
8
Edges
10
360717.150622
20
310877.798109
30
102.747882
0
VERTEX
8
Edges
10
360536.253708
20
310982.980049
30
95.302580
0
SEQEND
0
POLYLINE
8
Edges
66
1
70
0
62
0
999
RGB=255
0
VERTEX
8
Edges
10
360712.356380
20
310882.427856
30
-46.155164
0
VERTEX
8
Edges
10
360683.217620
20
310841.058649
30
103.466746
0
SEQEND
0
3DFACE
8
Surface
62
0
999
RGB=16756059
10
360712.356380
20
310882.427856
30
-46.155164
11
360683.217620
21
310841.058649
31
103.466746
12
360717.150622
22
310877.798109
32
102.747882
13
360717.150622
23
310877.798109
33
102.747882
0
3DFACE
8
Surface
62
0
999
RGB=16756059
10
360707.562137
20
310887.057602
30
-195.058209
11
360672.300301
21
310851.601382
31
-183.445398
12
360712.356380
22
310882.427856
32
-46.155164
13
360712.356380
23
310882.427856
33
-46.155164
0
3DFACE
8
Surface
62
0
999
RGB=16756059
10
360525.380925
20
311062.987953
30
-196.268802
11
360527.855770
21
310991.089843
31
-184.611707
12
360707.562137
22
310887.057602
32
-195.058209
13
360707.562137
23
310887.057602
33
-195.058209
0
3DFACE
8
Surface
62
0
999
RGB=16756059
10
360527.995967
20
311060.462637
30
-51.602835
11
360527.855770
21
310991.089843
31
-184.611707
12
360525.380925
22
311062.987953
32
-196.268802
13
360525.380925
23
311062.987953
33
-196.268802
0
3DFACE
8
Surface
62
0
999
RGB=16756059
10
360530.611008
20
311057.937321
30
93.063131
11
360536.253708
21
310982.980049
31
95.302580
12
360527.995967
22
311060.462637
32
-51.602835
13
360527.995967
23
311060.462637
33
-51.602835
0
3DFACE
8
Surface
62
0
999
RGB=16756059
10
360717.150622
20
310877.798109
30
102.747882
11
360536.253708
21
310982.980049
31
95.302580
12
360530.611008
22
311057.937321
32
93.063131
13
360530.611008
23
311057.937321
33
93.063131
0
3DFACE
8
Surface
62
0
999
RGB=16756059
10
360536.253708
20
310982.980049
30
95.302580
11
360717.150622
21
310877.798109
31
102.747882
12
360683.217620
22
310841.058649
32
103.466746
13
360683.217620
23
310841.058649
33
103.466746
0
3DFACE
8
Surface
62
0
999
RGB=16756059
10
360683.217620
20
310841.058649
30
103.466746
11
360712.356380
21
310882.427856
31
-46.155164
12
360677.758961
22
310846.330016
32
-39.989326
13
360677.758961
23
310846.330016
33
-39.989326
0
3DFACE
8
Surface
62
0
999
RGB=16756059
10
360677.758961
20
310846.330016
30
-39.989326
11
360712.356380
21
310882.427856
31
-46.155164
12
360672.300301
22
310851.601382
32
-183.445398
13
360672.300301
23
310851.601382
33
-183.445398
0
3DFACE
8
Surface
62
0
999
RGB=16756059
10
360672.300301
20
310851.601382
30
-183.445398
11
360707.562137
21
310887.057602
31
-195.058209
12
360527.855770
22
310991.089843
32
-184.611707
13
360527.855770
23
310991.089843
33
-184.611707
0
3DFACE
8
Surface
62
0
999
RGB=16756059
10
360527.855770
20
310991.089843
30
-184.611707
11
360527.995967
21
311060.462637
31
-51.602835
12
360536.253708
22
310982.980049
32
95.302580
13
360536.253708
23
310982.980049
33
95.302580
0
POLYLINE
8
Edges
66
1
70
0
62
0
999
RGB=255
0
VERTEX
8
Edges
10
360527.855770
20
310991.089843
30
-184.611707
0
VERTEX
8
Edges
10
360553.079897
20
310897.223008
30
-176.320688
0
SEQEND
0
POLYLINE
8
Edges
66
1
70
0
62
0
999
RGB=255
0
VERTEX
8
Edges
10
360527.855770
20
310991.089843
30
-184.611707
0
VERTEX
8
Edges
10
360553.079897
20
310897.223008
30
-174.076637
0
SEQEND
0
POLYLINE
8
Edges
66
1
70
0
62
0
999
RGB=255
0
VERTEX
8
Edges
10
360683.217620
20
310841.058649
30
103.466746
0
VERTEX
8
Edges
10
360648.412938
20
310805.160960
30
105.307636
0
SEQEND
0
POLYLINE
8
Edges
66
1
70
0
62
0
999
RGB=255
0
VERTEX
8
Edges
10
360672.300301
20
310851.601382
30
-183.445398
0
VERTEX
8
Edges
10
360638.718052
20
310814.523202
30
-172.954612
0
SEQEND
0
POLYLINE
8
Edges
66
1
70
0
62
0
999
RGB=255
0
VERTEX
8
Edges
10
360536.253708
20
310982.980049
30
95.302580
0
VERTEX
8
Edges
10
360553.079897
20
310897.223008
30
-174.076637
0
SEQEND
0
POLYLINE
8
Edges
66
1
70
0
62
0
999
RGB=255
0
VERTEX
8
Edges
10
360672.300301
20
310851.601382
30
-183.445398
0
VERTEX
8
Edges
10
360553.079897
20
310897.223008
30
-176.320688
0
SEQEND
0
POLYLINE
8
Edges
66
1
70
0
62
0
999
RGB=255
0
VERTEX
8
Edges
10
360536.253708
20
310982.980049
30
95.302580
0
VERTEX
8
Edges
10
360553.887804
20
310896.442821
30
100.819535
0
SEQEND
0
POLYLINE
8
Edges
66
1
70
0
62
0
999
RGB=255
0
VERTEX
8
Edges
10
360677.758961
20
310846.330016
30
-39.989326
0
VERTEX
8
Edges
10
360638.718052
20
310814.523202
30
-172.954612
0
SEQEND
0
POLYLINE
8
Edges
66
1
70
0
62
0
999
RGB=255
0
VERTEX
8
Edges
10
360683.217620
20
310841.058649
30
103.466746
0
VERTEX
8
Edges
10
360638.718052
20
310814.523202
30
-172.954612
0
SEQEND
0
3DFACE
8
Surface
62
0
999
RGB=16756059
10
360677.758961
20
310846.330016
30
-39.989326
11
360638.718052
21
310814.523202
31
-172.954612
12
360683.217620
22
310841.058649
32
103.466746
13
360683.217620
23
310841.058649
33
103.466746
0
3DFACE
8
Surface
62
0
999
RGB=16756059
10
360672.300301
20
310851.601382
30
-183.445398
11
360638.718052
21
310814.523202
31
-172.954612
12
360677.758961
22
310846.330016
32
-39.989326
13
360677.758961
23
310846.330016
33
-39.989326
0
3DFACE
8
Surface
62
0
999
RGB=16756059
10
360527.855770
20
310991.089843
30
-184.611707
11
360553.079897
21
310897.223008
31
-176.320688
12
360672.300301
22
310851.601382
32
-183.445398
13
360672.300301
23
310851.601382
33
-183.445398
0
3DFACE
8
Surface
62
0
999
RGB=16756059
10
360536.253708
20
310982.980049
30
95.302580
11
360553.079897
21
310897.223008
31
-174.076637
12
360527.855770
22
310991.089843
32
-184.611707
13
360527.855770
23
310991.089843
33
-184.611707
0
3DFACE
8
Surface
62
0
999
RGB=16756059
10
360648.412938
20
310805.160960
30
105.307636
11
360683.217620
21
310841.058649
31
103.466746
12
360638.718052
22
310814.523202
32
-172.954612
13
360638.718052
23
310814.523202
33
-172.954612
0
3DFACE
8
Surface
62
0
999
RGB=16756059
10
360638.718052
20
310814.523202
30
-172.954612
11
360672.300301
21
310851.601382
31
-183.445398
12
360553.079897
22
310897.223008
32
-176.320688
13
360553.079897
23
310897.223008
33
-176.320688
0
3DFACE
8
Surface
62
0
999
RGB=16756059
10
360553.079897
20
310897.223008
30
-176.320688
11
360527.855770
21
310991.089843
31
-184.611707
12
360553.079897
22
310897.223008
32
-174.076637
13
360553.079897
23
310897.223008
33
-174.076637
0
3DFACE
8
Surface
62
0
999
RGB=16756059
10
360553.079897
20
310897.223008
30
-174.076637
11
360536.253708
21
310982.980049
31
95.302580
12
360553.887804
22
310896.442821
32
100.819535
13
360553.887804
23
310896.442821
33
100.819535
0
3DFACE
8
Surface
62
0
999
RGB=16756059
10
360683.217620
20
310841.058649
30
103.466746
11
360553.887804
21
310896.442821
31
100.819535
12
360536.253708
22
310982.980049
32
95.302580
13
360536.253708
23
310982.980049
33
95.302580
0
3DFACE
8
Surface
62
0
999
RGB=16756059
10
360683.217620
20
310841.058649
30
103.466746
11
360648.412938
21
310805.160960
31
105.307636
12
360553.887804
22
310896.442821
32
100.819535
13
360553.887804
23
310896.442821
33
100.819535
0
POLYLINE
8
Edges
66
1
70
0
62
0
999
RGB=255
0
VERTEX
8
Edges
10
360553.079897
20
310897.223008
30
-176.320688
0
VERTEX
8
Edges
10
360562.390905
20
310818.723293
30
-162.375258
0
SEQEND
0
POLYLINE
8
Edges
66
1
70
0
62
0
999
RGB=255
0
VERTEX
8
Edges
10
360553.887804
20
310896.442821
30
100.819535
0
VERTEX
8
Edges
10
360567.047028
20
310814.226927
30
101.671252
0
SEQEND
0
POLYLINE
8
Edges
66
1
70
0
62
0
999
RGB=255
0
VERTEX
8
Edges
10
360553.079897
20
310897.223008
30
-174.076637
0
VERTEX
8
Edges
10
360562.390905
20
310818.723293
30
-162.375258
0
SEQEND
0
POLYLINE
8
Edges
66
1
70
0
62
0
999
RGB=255
0
VERTEX
8
Edges
10
360638.718052
20
310814.523202
30
-172.954612
0
VERTEX
8
Edges
10
360562.390905
20
310818.723293
30
-162.375258
0
SEQEND
0
POLYLINE
8
Edges
66
1
70
0
62
0
999
RGB=255
0
VERTEX
8
Edges
10
360648.412938
20
310805.160960
30
105.307636
0
VERTEX
8
Edges
10
360613.608256
20
310769.263272
30
108.137697
0
SEQEND
0
POLYLINE
8
Edges
66
1
70
0
62
0
999
RGB=255
0
VERTEX
8
Edges
10
360638.718052
20
310814.523202
30
-172.954612
0
VERTEX
8
Edges
10
360605.848051
20
310776.757214
30
-163.452999
0
SEQEND
0
POLYLINE
8
Edges
66
1
70
0
62
0
999
RGB=255
0
VERTEX
8
Edges
10
360553.079897
20
310897.223008
30
-174.076637
0
VERTEX
8
Edges
10
360567.047028
20
310814.226927
30
101.671252
0
SEQEND
0
POLYLINE
8
Edges
66
1
70
0
62
0
999
RGB=255
0
VERTEX
8
Edges
10
360553.887804
20
310896.442821
30
100.819535
0
VERTEX
8
Edges
10
360613.608256
20
310769.263272
30
108.137697
0
SEQEND
0
POLYLINE
8
Edges
66
1
70
0
62
0
999
RGB=255
0
VERTEX
8
Edges
10
360648.412938
20
310805.160960
30
105.307636
0
VERTEX
8
Edges
10
360605.848051
20
310776.757214
30
-163.452999
0
SEQEND
0
3DFACE
8
Surface
62
0
999
RGB=16756059
10
360648.412938
20
310805.160960
30
105.307636
11
360613.608256
21
310769.263272
31
108.137697
12
360553.887804
22
310896.442821
32
100.819535
13
360553.887804
23
310896.442821
33
100.819535
0
3DFACE
8
Surface
62
0
999
RGB=16756059
10
360638.718052
20
310814.523202
30
-172.954612
11
360605.848051
21
310776.757214
31
-163.452999
12
360648.412938
22
310805.160960
32
105.307636
13
360648.412938
23
310805.160960
33
105.307636
0
3DFACE
8
Surface
62
0
999
RGB=16756059
10
360553.079897
20
310897.223008
30
-176.320688
11
360562.390905
21
310818.723293
31
-162.375258
12
360638.718052
22
310814.523202
32
-172.954612
13
360638.718052
23
310814.523202
33
-172.954612
0
3DFACE
8
Surface
62
0
999
RGB=16756059
10
360553.079897
20
310897.223008
30
-174.076637
11
360562.390905
21
310818.723293
31
-162.375258
12
360553.079897
22
310897.223008
32
-176.320688
13
360553.079897
23
310897.223008
33
-176.320688
0
3DFACE
8
Surface
62
0
999
RGB=16756059
10
360553.887804
20
310896.442821
30
100.819535
11
360567.047028
21
310814.226927
31
101.671252
12
360553.079897
22
310897.223008
32
-174.076637
13
360553.079897
23
310897.223008
33
-174.076637
0
3DFACE
8
Surface
62
0
999
RGB=16756059
10
360567.047028
20
310814.226927
30
101.671252
11
360553.887804
21
310896.442821
31
100.819535
12
360613.608256
22
310769.263272
32
108.137697
13
360613.608256
23
310769.263272
33
108.137697
0
3DFACE
8
Surface
62
0
999
RGB=16756059
10
360613.608256
20
310769.263272
30
108.137697
11
360648.412938
21
310805.160960
31
105.307636
12
360605.848051
22
310776.757214
32
-163.452999
13
360605.848051
23
310776.757214
33
-163.452999
0
3DFACE
8
Surface
62
0
999
RGB=16756059
10
360605.848051
20
310776.757214
30
-163.452999
11
360638.718052
21
310814.523202
31
-172.954612
12
360562.390905
22
310818.723293
32
-162.375258
13
360562.390905
23
310818.723293
33
-162.375258
0
3DFACE
8
Surface
62
0
999
RGB=16756059
10
360562.390905
20
310818.723293
30
-162.375258
11
360553.079897
21
310897.223008
31
-174.076637
12
360567.047028
22
310814.226927
32
101.671252
13
360567.047028
23
310814.226927
33
101.671252
0
3DFACE
8
Surface
62
0
999
RGB=16756059
10
361798.582135
20
312057.733581
30
87.133482
11
361823.740707
21
312033.438231
31
-76.387318
12
361831.791450
22
312025.663719
32
91.326323
13
361831.791450
23
312025.663719
33
91.326323
0
3DFACE
8
Surface
62
0
999
RGB=16756059
10
361798.582135
20
312057.733581
30
87.133482
11
361793.550421
21
312062.592652
31
-76.387318
12
361823.740707
22
312033.438231
32
-76.387318
13
361823.740707
23
312033.438231
33
-76.387318
0
3DFACE
8
Surface
62
0
999
RGB=16756059
10
360567.047028
20
310814.226927
30
101.671252
11
360613.608256
21
310769.263272
31
108.137697
12
360605.848051
22
310776.757214
32
-163.452999
13
360605.848051
23
310776.757214
33
-163.452999
0
3DFACE
8
Surface
62
0
999
RGB=16756059
10
360567.047028
20
310814.226927
30
101.671252
11
360605.848051
21
310776.757214
31
-163.452999
12
360562.390905
22
310818.723293
32
-162.375258
13
360562.390905
23
310818.723293
33
-162.375258
0
ENDSEC
0
EOF
